Oops, an error
Loading. Please wait.

This Island Earth Tab

version 1
version 1

Whole song

Interactive

1,684 views 1 this week
1 commentread comment
1 2 3 4 5
x 3
add to favorites
launch autoscroll
font size
0
reset
how to read this tab
guitar tuner
×
Best way to learn
"This Island Earth"
Autoscroll
slow
fast
+/-
esc
set tempo
stop
Band: misfits
song: This Island Earth

Tabber: John Cukras
Email: riffreaper@yahoo.com

Tuning: normal

Riff 1:
E----------------------------------------------------------
B----------------------------------------------------------
G----------------------------------------------------------
D-444444---------------------4444444-333333----------------
A-222222-44444-666666-44444--2222222-111111-4444444-6666666
E--------22222-444444-22222-----------------2222222-4444444
pm                                          .......

Riff 2:
E--------------------------------------------------------------------
B--------------------------------------------------------------------
G--------------------------------------------------------------------
D-4-4444444-3-333333----------------------4-4444444-3-333333-55555555
A-2-2222222-1-111111-6-66666666-4-4444444-2-2222222-1-111111-33333333 x's 2
E--------------------4-44444444-2-2222222----------------------------
pm  .......   ......   ........   .......   .......   ......

Riff 3:
E----------------------
B----------------------
G----------------------
D-444444-555555-6666666
A-222222-333333-4444444
E---------------------- x's 4

Riff 4:
E------------------------------------------------
B------------------------------------------------
G------------------------------------------------
D--------------666666---------------------6666666
A-44444-666666-444444-444444-44444-666666-4444444
E-22222-444444--------222222-22222-444444-------- x's 2

Riff 2 x's 2

Riff 3 x's 4

Riff 4 x's 2

Riff 5:
E-----------------------------
B-----------------------------
G-----------------------------
D-666666---------------6666666
A-444444-444444-666666-4444444
E--------222222-444444-------- x's 4
Suggest correction
Give kudos to tab author, rate the tab!
1 2 3 4 5
comments
print report bad tab
1 comment total.
0 reply
subligar 31 Sep 02, 2013 10:38 PM

This should be tuned down a half step instead of normal tuning.

The end of riff 2 should be:

E--------------------------------------------------------------------
B--------------------------------------------------------------------
G--------------------------------------------------------------------
D-4-4444444-3-333333----------------------4-4444444-3-333333-66666666
A-2-2222222-1-111111-6-66666666-4-4444444-2-2222222-1-111111-44444444
E--------------------4-44444444-2-2222222----------------------------
pm ....... ...... ........ ....... ....... ......

Also you can add to the end of riff 3:

Riff 3:
E--------------------------
B--------------------------
G--------------------------
D-444444-555555-6666666-6-5
A-222222-333333-4444444-4-3
E--------------------------

Do that for the first 3 times and the last time around do a big slide into riff 4

guest
You may want to rate the tab now too:
select rating
Wanna post a correction for this tab? Suggest correction