Oops, an error
Loading. Please wait.

This Island Earth Bass Tab

version 2
version 2

Whole song

Interactive

1 view 1 this week
no commentswrite comment
1 2 3 4 5
3 more votes to show rating
add to favorites
launch autoscroll
font size
0
reset
guitar tuner
Autoscroll
slow
fast
+/-
esc
set tempo
stop
Help us to improve Ultimate-Guitar.com Take our survey!
×
Author
Difficulty
Tuning
novice
D# G# C# F# A# D#
Misfits - This Island Earth
American Psycho (1997)

[Intro]

F#|-------------------------------|-------------------------------|
C#|-------------------------------|-------------------------------|
G#|-------------------------------|-------------------------------|
D#|-7--7-7-7-7-7-7-2--2-2-2-2-2-2-|-4--4-4-4-4-4-4-2--2-2-2-2-2-2-|

F#|-------------------------------|---------------------------------|
C#|-------------------------------|---------------------------------|
G#|-------------------------------|---------------------------------|
D#|-7--7-7-7-7-7-7-6--6-6-6-6-6-6-|-2-2-2-2-2-2-2-2-2-2-2-2-2-2-2-2-|


[Break]

F#|-----------------|
C#|-----------------|
G#|-----------------|
D#|-4-4-4-4-4-4-4-4-|


[Verse] x2 

F#|----------------------------|----------------------------|
C#|----------------------------|----------------------------|
G#|----------------------------|----------------------------|
D#|-7--7-7-7-7-7\6--6-6-6-6-6\-|-4--4-4-4-4-4\2--2-2-2-2-2/-|

F#|---------------------------|--------------------------------|
C#|---------------------------|--------------------------------|
G#|---------------------------|-4--4-4-4-4-4-4-4-4-4-4-4-4-4-4-|
D#|-7--7-7-7-7-7\6--6-6-6-6-6-|--------------------------------|


[Pre Chorus] x4

F#|---------------------------------|---------------------------------|
C#|---------------------------------|---------------------------------|
G#|-2-2-2-2-2-2-2-2-3-3-3-3-3-3-3-3-|-4-4-4-4-4-4-4-4-4-4-4-4-4-4-3-3-|
D#|---------------------------------|---------------------------------|

[Chorus] x2

F#|---------------------------------|---------------------------------|
C#|---------------------------------|---------------------------------|
G#|---------------------------------|-4-4-4-4-4-4-4-4-----------------|
D#|-2-2-2-2-2-2-2-2-4-4-4-4-4-4-4-4-|-----------------2-2-2-2-2-2-2-2-|

F#|---------------------------------|---------------------------------|
C#|---------------------------------|---------------------------------|
G#|---------------------------------|-4-4-4-4-4-4-4-4-4-4-4-4-4-4-4-4-|
D#|-2-2-2-2-2-2-2-2-4-4-4-4-4-4-4-4-|---------------------------------|

[Outro]

F#|---------------------------------|---------------------------------|
C#|---------------------------------|---------------------------------|
G#|-2-2-2-2-2-2-2-2-----------------|-----------------4-4-4-4-4-4-4-4-|
D#|-----------------4-4-4-4-4-4-4-4-|-4-4-4-4-4-4-4-4-----------------|


[End]

F#|-----|
C#|-----|
G#|-4---|
D#|-----|

Order:
Intro
Break
Verse
Pre Chorus
Chorus
Verse
Pre Chorus
Chorus
Outro x4
End


************************************

| /   Slide up
| \   Slide down

************************************
Suggest correction
Give kudos to tab author, rate the tab!
1 2 3 4 5
comments
print report bad tab
guest
You may want to rate the tab now too:
select rating
Wanna post a correction for this tab? Suggest correction