Oops, an error
Loading. Please wait.

This Magic Moment tab

version 2
version 2

Whole song

Interactive

by Misfits
5,588 views 6 this week
4 commentsread comments
1 2 3 4 5
x 5
add to favorites
×
Save as Personal and add changes to this tab that will be seen only by you. Learn more ›
×
You can save this tab as Personal to edit and correct it or add notes. All changes will be seen only by you. Learn more »
launch autoscroll
font size
0
reset
how to read this tab
guitar tuner
edit
Autoscroll
slow
fast
+/-
esc
set tempo
stop
Author
THIS MAGIC MOMENT
The Misfits
1950's Project

  Intro
e|---------------------------------------------|
B|---------------------------------------------|
G|---------------------------------------------|
D|77777777--4---444----------------------------|
A|55555555--2---222---55555555--7-9-77777777---|
E|--------------------33333333--5-7-55555555---|

  Verse & Chorus
e|-----------------------------------------|
B|-----------------------------------------|
G|-----------------------------------------|
D|77777777--44444444-----------------------|
A|55555555--22222222--55555555--77777777---|
E|--------------------33333333--55555555---|

  Break ("Sweeter Than Wine...")
e|------------------------------------------|
B|------------------------------------------|
G|------------------------------------------|
D|-4444444------------77777777--------------|
A|-2222222--55555555--55555555--777777777---|
E|----------33333333------------555555555---|

 Solo
e|------------------------------------------------------|
B|------------------------------------------------------|
G|------------------------------------------------------|
D|------------------------------------------------------|
A|-5b----5-7-9-7-5-2b----22222------------0-2-0--000000-|
E|-----------------------------3b----3333---------------|


I'm just guessing with that solo. Simple BS solo, feel free to variate and make it up on 
own as Dez Cadena does live. My first tab so sorry if it's a little crude enjoy. - Cigar

            
            
Suggest correction
Creating personal tab
Creating personal tab
You can edit any tab online and save it as your Personal.

You can edit, replace or remove any tab part or add personal notes – all changes will be seen only by you.

Personal tabs can be accessed anytime from any device, even offline.
Learn more »
comments
print report bad tab
4 comments total. Showing first comments.
+2 reply
mybandsuks_15 60 Feb 10, 2008 11:26 AM

sounds good to me, except the intro a little bit

0 reply
afi1994 10 May 21, 2008 03:08 PM

it sounds alittle off

+1 reply
HavokMusic 10 Dec 19, 2008 03:12 PM

The Intro is off but other than that it's pretty much on the target

guest
You may want to rate the tab now too:
select rating
Wanna post a correction for this tab? Suggest correction