Oops, an error
Loading. Please wait.

Walk Among Us Bass Tab

version 1
version 1

Album

Whole song

Interactive

2,761 views 12 this week
no commentswrite comment
1 2 3 4 5
accurate
x 6
add to favorites
launch autoscroll
font size
0
reset
guitar tuner
Tab Pro tools
  • play this tab
  • loop segment
  • change instrument
  • show fretboard
  • metronome
×
Best way to learn
"Walk Among Us"
Autoscroll
slow
fast
+/-
esc
set tempo
stop
Contributor
WALK AMONG US BASS TABS
this is the misfits second cd its one of my favorites im still workin hard to get
you guys the whole ablum tabs for american psycho

1. 20 eyes

Rif: 1
G---------------------------------------|
D---------------------------------------|
A---9(x8)---7(x8)----9(x8)--------------|
E---------------------------------------|

Rif: 2
G----------------------------------------------------------------------|
D----------------------------------------------------------------------|
A-9(x8)-7(x8)-9(x8)-9(x8)-7(x8)-9(x8)-9(x8)---7(x8)---777--9'--7'--9'--|
E-------------------------------------------7(x8)----------------------|

Rif: 3
G------------------------------------------------------------------|
D------------------------------------------------------------------|
A---9(x8)---7(x8)---9(x8)---9(x8)---7(x8)---777—9(x8)—7(x8)—9(x8)--|
E------------------------7(x8)-------------------------------------|

Rif: 4
G--------------------------------------------------------------------|
D--------------------------------------------------------------------|
A-------9(x12)---------9(X12--------9(x12)-----9(X12)--------777-----|
E--9(x12)---------9(x12)--------9(x12)-------9(x12)----7777----------|

(Rif: 2)
(Rif: 4)
(Rif: 2)

Rif 5
G---------------------------------------------------------------------------|
D---------------------------------------------------------------------------|
A--9(x8)---7(x8)---9(x8)----9(x8)---7(x8)---9(x8)----9(x8)----7(x8)---------|9(X8)
E------------------------777----------------------777-----------------------|

2. I turned into a Martian

Rif: 1
G------------------------------------------|
D------------------------------------------|
A-------------55---------------------------|
E--3---5-----------------------------------|

Rif: 2
G------------------------------------------|
D------------------------------------------|
A-----------5------------------------------|
E----777777----5555------------------------|

(Rif: 2)
(Rif: 2)
(Rif: 2)
(Rif: 2)
(Rif: 2)

Rif: 3
G------------------------------------------|
D------------------------------------------|
A-------------------5555----55-------------|
E----3333---5555----------------55---------|

(Rif: 3)
(Rif: 3)
(Rif: 3)
(Rif: 2)
(Rif: 2)
(Rif: 2)
(Rif: 2)
(Rif: 2)
(Rif: 2)
(Rif: 3)
(Rif: 3)
(Rif: 3)
(Rif: 3)
(Rif: 1)
(Rif: 1)
(Rif: 1)
(Rif: 1)
(Rif: 3)
(Rif: 3)
(Rif: 3)
(Rif: 3)
(Rif: 3)
(Rif: 3)
(Rif: 3)
(Rif: 3)


3. All hell brakes loose

Rif: 1
G----------------------------|
D--------------3333----------|
A--10\55555555------3-3-1-1--|
E----------------------------|

Rif: 2 (5 times)
G----------------------------|
D------------3333------------|
A--55555555--------3-3--1-1--|
E----------------------------|

(Rif: 2)
(Rif: 2)
(Rif: 2)
(Rif: 2)

Rif: 3
G---------------------------------|
D---------------3---3-------------|
A------------------------3--------|
E---------------------------------|

(Rif: 2)
(Rif: 2)
(Rif: 2)
(Rif: 2)
(Rif: 3)

Rif: 4
G-----------------------------------|
D-----------------------------------|
A------------5555-------------3333--|
E—0(x8)-3333------0(x8)-3333--------|

Rif: 5
G---------------------------------------|
D---------------------------------------|
A------------5555-------------3333--1---|
E—0(x8)-3333-------0(x8)-3333-----------|

(Rif: 2)
(Rif: 2)
(Rif: 2)
(Rif: 2)
(Rif: 4)
(Rif: 4)
(Rif: 4)
(Rif: 4)

Rif: 6
G------------------------------|
D------------------------------|
A-----3--------5---------------|
E---------3-----------0--------|

4. Vampira

Rif: 1
G-------|
D-2-3-0-|
A-------|
E-------|

(Rif: 1)

Rif: 2
G-----------
D-222222222-
A-----------|
E-----------|

(Rif: 2)
(Rif: 2)
(Rif: 2)

Rif: 3
G----------|
D----------|
A-00000000-
E----------

(Rif: 2)

(Rif: 4)
G---------|
D---------|
A-0--2-22-|
E---------|

(Rif: 4)
(Rif: 4)
(Rif: 4)
(Rif: 2)
(Rif: 2)
(Rif: 2)
(Rif: 2)
(Rif: 3)
(Rif: 2)
(Rif: 4)
(Rif: 4)
(Rif: 4)
(Rif: 4)
(Rif: 2)
(Rif: 2)
(Rif: 2)
(Rif: 2)
(Rif: 2)
(Rif: 2)
(Rif: 3)
(Rif: 2)
(Rif: 1)
(Rif: 1)
(Rif: 1)
(Rif: 1)
(Rif: 1)
(Rif: 1)


5. Nike a go go

Rif: 1
G-----------------------------|
D-----------------------------|
A--------------------3-2-1-0--|
E—3(x8)-3(x8)-3(x8)-----------|

Rif: 2
G--------------------------------|
D--------------------------------|
A---------1(x8)---------3-2-1-0--|
E—3(x8)----------1(x8)-----------|

Rif: 3
G---------------------------------------|
D---------------------------------------|
A---------------------------------------|
E--3--------3--------3---------3--------|

(Rif: 2)
(Rif: 2)
(Rif: 2)
(Rif: 2)
(Rif: 3)
(Rif: 2)
(Rif: 2)
(Rif: 2)
(Rif: 2)
(Rif: 3)

Rif: 4
G--------------------------------|
D--------------------------------|
A-------------------3(X8)-3(X8)--|
E—3(x8)-3(X8)--------------------|

(Rif: 3)

Rif: 5
G--------------------------------|
D--------------------------------|
A-------------------6(X8)-6(X8)--|
E—3(X8)-3(X8)--------------------|

Rif: 3

Rif: 6
G-----------------------------------|
D-----------------------------------|
A---------7--7--7--7----5--5--5--5--|
E—1(X8)-----------------------------|

(Rif: 6)
(Rif: 6)
(Rif: 6)
(Rif: 6)
(Rif: 6)
(Rif: 6)
(Rif: 6)
(Rif: 6)
(Rif: 6)
(Rif: 6)

Rif: 7
G---------------------------------------|
D---------------------------------------|
A---------7--7--7--7----5--5--5--5------|
E—1(X8)-----------------------------1—1-|


6. HATE BREEDERS

Rif: 1
G|--------------------------------------------------------------|
D|--------------------------------------------------------------|
A|------9(x12)--------6(x12)----4(x8)—6(x8)---------------------|
E|--7(x12)-------4(x12)-----------------------4(x12)—2(x12)-----|

Rif: 2
G|----------------------------------------------|
D|----------------------------------------------|
A|-------7(x8)---777------------7(x8)---777-----|
E|--7(x8)--------------7(x12)-------------------|

Rif: 3
G|-----------------------------------------------------------|
D|-----------------------------------------------------------|
A|------9(x12)-------6(x12)---4(x8)—6(x8)--------------------|
E|--7(x12)------4(x12)-------------------4(x12)---2(x12)-----|

(Rif: 2)
(Rif: 3)
(Rif: 2)
(Rif: 3)
(Rif: 2)
(Rif: 3)
(Rif: 2)
(Rif: 3)

7. Mommy Can I Go Out and Kill Tonight

Rif: 1
G----------------|
D----------------|
A---------3(x15--|
E-5(x32)---------|

(Rif: 1)
(Rif: 1)

Rif: 2
G----------------------|
D----------------------|
A------3333------------|
E-5555------5555-3333--|

(Rif: 2)
(Rif: 2)
(Rif: 2)
(Rif: 2)
(Rif: 2)
(Rif: 2)
(Rif: 2)
(Rif: 2)
(Rif: 2)
(Rif: 2)
(Rif: 2)
(Rif: 2)
(Rif: 2)
(Rif: 2)
(Rif: 2)
(Rif: 2)
(Rif: 2)
(Rif: 2)


8. Night of the living dead

Rif: 1
G--------------------------------------|
D--------------------------------------|
A-3(x8)-------------------1(x8)--------|
E----------3(x8)-1(x8)-----------------|

(Rif: 1)
(Rif: 1)
(Rif: 1)

Rif: 2
G----------------|
D----------3(x8)-|
A-3(x8)----------|
E----------------|

(Rif: 2)
(Rif: 2)
(Rif: 2)
(Rif: 2)
(Rif: 2)
(Rif: 2)
(Rif: 2)

Rif: 3
G------------------------|
D------------------------|
A-0(x8)-1111-1-1-1-------|
E----------------------3-|

(Rif: 3)
(Rif: 3)

Rif: 4
G------------------------|
D------------------------|
A-0(x8)-1111-1-1-1-------|
E----------------------3-|

(Rif: 1)
(Rif: 1)
(Rif: 1)
(Rif: 1)
(Rif: 2)
(Rif: 2)
(Rif: 2)
(Rif: 2)
(Rif: 3)
(Rif: 3)
(Rif: 4)
(Rif: 1)
(Rif: 1)
(Rif: 1)
(Rif: 1)

Rif: 5
G---------------------|
D---------------------|
A-3(x13)-3-3-3--------|
E-----------------(0)-|


9. Skulls

Rif: 1
G--------------------------------------|
D--------------------------------------|
A-----------7(x8)-9(x8)-5(x8)----------|
E---5(x8)------------------------------|

Rif: 2
G---------------------------------|
D---------------------------------|
A----------------5(x14)-----------|
E-2(x14)--------------------------|

(Rif: 1)
(Rif: 2)


G---------------------------------|
D---------------------------------|
A------------------55--77---------|
E-2(x8)-3(x8)---------------------|

G--------------------------------|
D--------------------------------|
A--99999-55--77------------------|
E--------------------------------|

10. Violent world

Rif: 1
G--------------------------------------|
D--------------------------------------|
A--------------------------------------|
E--0(x8)---3(x8)---5(x8)---3(x8)-------|

(Rif: 1)

Rif: 2
G--------------------------------------|
D--------------------------------------|
A--------------------------------------|
E--0(x8)---3(x8)---5(x8)---3(x8)-------|

(Rif: 2)
(Rif: 2)
(Rif: 2)

Rif: 3
G-----------------------------|
D-----------------------------|
A--4(x8)----------------------|
E------4(x8)------------------|

(Rif: 3)
(Rif: 3)
(Rif: 3)

(Rif: 1)
(Rif: 1)
(Rif: 2)
(Rif: 2)
(Rif: 2)
(Rif: 2)
(Rif: 3)
(Rif: 3)
(Rif: 3)
(Rif: 1)
(Rif: 1)
(Rif: 2)
(Rif: 2)
(Rif: 2)
(Rif: 2)

Rif: 4
G---------------------------------------------------|
D---------------------------------------------------|
A—4(x8)------6(x8)--------8(x8)-------10(x8)--------|
E------4(x8)-------6(x8)-------8(x8)-------10(x8)---|

(Rif: 3)
(Rif: 3)
(Rif: 3)
(Rif: 3)
(Rif: 3)
(Rif: 3)

Rif: 5
G------------------------------|
D------------------------------|
A------------------------------|
E--0--0--3--0------------------|


11. Devils whorehouse

Rif: 1
G-------------|
D-------------|
A---------7/--|
E0230-2035----|


Rif: 2
G-------------------------|
D---2------3-2---2---3--5-|
A3------5------3---5------|
E-------------------------|

(I don't know the order but this is all you have to play through the whole thing)


12. Astro zombies

Rif: 1
G--------------------------|
D--------------------------|
A3332-22-000---------------|
E-----------3-33-1111-3333-|

(Rif: 1)

Rif 2
G------------------|
D------------------|
A3(x8)-------------|
E--------1111-3333-|

(Rif: 2)

Rif: 3
G-------------------------------|
D----------------2(x8)3333-5555-|
A3(x8)0(x8)---------------------|
E-------------------------------|

(Rif: 3)

Rif: 4
G---------------------------|
D---------------------------|
A3(x8)0(x8)5(x8)------------|
E-------------------3(x8)---|

(Rif: 4)

Rif: 5
G-------------------|
D-------------------|
A3(x8)--------------|
E--------1111-3333--|

(Rif: 5)
(Rif: 3)
(Rif: 3)
(Rif: 4)
(Rif: 4)
(Rif: 5)
(Rif: 5)
(Rif: 5)
(Rif: 5)
(Rif: 1)
(Rif: 1)

Rif: 6
G---------------------------------|
D---------------------------------|
A-------------------------------3-|
E1-1-1-1-1-1-1-1-3-3-3-3-3-3-3-3--|


13. Braineaters


Rif: 1
G---------------------------------|
D---------------------------------|
A-----------0(x8)----------2(x8)--|
E—0(x8)----------0(x8)------------|

Rif: 2
G----------------------------------------|
D----------------------------------------|
A-----------2(x8)-0(x8)------------------|
E—0(x8)-------------------0(x8)----------|

(Rif: 1)
(Rif: 2)

Rif: 3
G---------------------------------|
D---------------------------------|
A—0(x8)-0(x8)---------------------|
E--------------------0(x8)-0(x8)--|

Rif: 4
G--------------------------|
D--------------------------|
A—0(x8)-0(x8)-2(x8)-2(x8)--|
E--------------------------|

Rif: 1
Rif: 2

Rif: 5
G----------------------|
D----------------------|
A--2222-0000-----------|
E------------0(x8)-----|

Riff F: (once)
G----------------------------------------------|
D----------------------------------------------|
A—2(x8)-2(x8)-0(x8)-0(x8)----------------------|
E-------------------------------0(x8)-0(x8)-0--|
comments
print report bad tab
I want to post or [tab]
guest
You may want to rate the tab now too:
select rating
Please do not post tabs as comments. Select "correction" instead!