Oops, an error
Loading. Please wait.

Walk Among Us Tab

version 1
version 1

Album

Whole song

Interactive

9,687 views 6 this week
no commentswrite comment
1 2 3 4 5
excellent!
x 5
add to favorites
launch autoscroll
font size
0
reset
how to read this tab
guitar tuner
Tab Pro tools
  • play this tab
  • loop segment
  • change instrument
  • show fretboard
  • metronome
×
Best way to learn
"Walk Among Us"
Autoscroll
slow
fast
+/-
esc
set tempo
stop
Contributor
Difficulty
intermediate
I don't take any credit for this, so here ya go.
Just thought it'd be nice to have one spot for the album tabs.



   1. "20 Eyes" 
   2. "I Turned into a Martian" 
   3. "All Hell Breaks Loose" 
   4. "Vampira" 
   5. "Nike A Go Go" 
   6. "Hatebreeders" 
   7. "Mommy Can I Go Out & Kill Tonight?" 
   8. "Night of the Living Dead" 
   9. "Skulls" 
  10. "Violent World" 
  11. "Devils Whorehouse" 
  12. "Astro Zombies" 
  13. "Braineaters" 


20 Eyes
_______
_______

Riff 1:  Part A                       Part B
E-----------------------------|------------------------|
B-----------------------------|------------------------|
G-----------------------------|------------------------|
D--------222222---------------|-------22222------44-22-|
A-444444-222222-4444444-------|-44444-22222-4444-22-22-|
E-222222-000000-2222222-x's 3-|-22222-00000-2222----00-|

Riff 1: Part A x's 2 , Part B , Part A once

Riff 2:
E--------------------------------------|
B--------------------------------------|
G--------------------------------------|
D-6666666--------------666666--444-222-|
A-4444444-4444444------444444--222-222-|
E---------2222222-x'3--------------000-|

Riff 1: Part A x's 2 , Part B , Part A

Riff 2

Riff 1: Part A x's 2 , Part B x's 3

End:
E------------------------------------|
B------------------------------------|
G------------------------------------|
D-------2222-------444-444-444-444-4-|
A-44444-2222-4444--222-222-222-222-2-|
E-22222-0000-2222--------------------|




________________________
I Turned Into a Martian
_______
_______
(intro)
e|-------------------------|
B|-------------------------|
G|-------------------------|
D|----------------8-8-8:---|
A|--6-6-6--8-8-8--6-6-6:---|
E|--4-4-4--6-6-6-----------|
    D U D  D U D  D U D

(riff 2)
e|---------------------------------------|
B|---------------------------------------|
G|---------------------------------------|
D|------------------------8-8------------|
A|--10-10-10-10-10-10-10--6-6--8-8-8-----|
E|--8--8--8--8--8--8--8--------6-6-6-----|

(riff 3a)
e|---------------------------------------|
B|---------------------------------------|
G|---------------------------------------|
D|--------------------8-8-8-8--8---------|
A|--6-6-6-6--8-8-8-8--6-6-6-6--6---8-----|
E|--4-4-4-4--6-6-6-6---------------6-----|

(riff 3b)
e|-------------------------|
B|-------------------------|
G|-------------------------|
D|-------------------------|
A|--6-6-6-6--8-8-8-8-------|
E|--4-4-4-4--6-6-6-6-------|

(riff 4)
e|-----------------------------------------------------------|
B|-----------------------------------------------------------|
G|-----------------------------------------------------------|
D|----------------------------10-10-10-10-10-10-10-10-10-----|
A|---10-10-10-10-10-10-10-10--8--8--8--8--8--8--8--8--8------|
E|---8--8--8--8--8--8--8--8----------------------------------|

(solo)
e|--3-3-3-3-3-3-3--8-8-8-8-8-8-8--3-3-3-3-3-3-3--8-8-8-8-8-8-8-|
B|-------------------------------------------------------------|
G|-------------------------------------------------------------|
D|-------------------------------------------------------------|
A|-------------------------------------------------------------|
E|-------------------------------------------------------------|


order: 
intro      1x
riff 2     6x
riff 3a    3x
riff 3b    1x
riff 2     6x
riff 3a    3x
riff 3b    1x
riff 4     2x
solo       1x
riff 3a    9x




_____________________
All Hell Breaks Loose
_______
_______
Riff 1:  A                              B
E----------------------------------|---------------|
B----------------------------------|---------------|
G----------------------------------|---------------|
D-77777777-101010-5555-3333 x's 5--|-10-10-----5-3-|
A-55555555-888888-3333-1111--------|-8--8------3-1-|
E----------------------------------|-------000-----|
pm                                         ...

Riff 1: A x's 4 , B

Riff 2:
E------------------------------------|
B------------------------------------|
G------------------------------------|
D-7777777------5555-777777------5555-| x's 2
A-5555555-5555-3333-555555-5555-3333-|
E---------3333-------------3333------|

Riff 1: A x's 4 , B (no pm's)

Riff 2 x's 4

End:
E----------|
B----------|
G----------|
D-7-----10-|
A-5--5--8--|
E----3-----|



_________________
Vampira
_______
_______
Intro                   
E|-10-10-10-10-10-10-| 
B|-------------------| 
G|-------------------| 
D|-------------------| 
A|-------------------| 
E|-------------------| 

Riff 1: Played under the intro
E---------------
B---------------
G---------------
D-222-----777777
A-222-333-555555
E-000-111-------  x's 2

Riff 2:
|-----------------------------|
|-----------------------------|
|-----------------------------|
|-----------------------------|
|---5----7--5-7---5---7--5-7--|
|---0----0--0-0---0---0--0-0--|

Played underneath riff 2
E---------
B---------
G---------
D---------
A-77777777
E-55555555

Riff 3:
E-----------------
B-----------------
G-----------------
D--------444-4-4-4
A-777777-222-2-2-2
E-555555----------  x's 4

Riff 2/underneath

Riff 3 x's 4

Riff 2

Riff 1/intro x's 6


_____________________
Nike A Go-Go
_______
_______
riff 1:
E-------------------------------------------------
B-------------------------------------------------
G-------------------------------------------------
D----------------------55-44----------------------
A-55555-888888-333333--33-22-88-77-55------------5 x's 4
E-33333-666666-111111--------66-55-33 x's 2 -----3

Riff 2:
E-----------------------------
B-----------------------------
G-----------------------------
D----------5-4----------------
A-5--8--3--3-2-8-7-5---------5
E-3--6--1------6-5-3 x's 4---3 x's 4

Riff 2 

Riff 3
E-------------------------------------------------------
B-------------------------------------------------------
G-------------------------------------------------------
D---------5555555-----------------55555555-88888888-----
A-5555555-3333333----5------------33333333-66666666----5
E-3333333------------3 x's 4---------------------------3 x's 4

Riff 4:
E--------
B--------
G--------
D----2--7
A-3--2--5
E-1--0---  x's 13





_________________
Hatebreeders
_______
_______
(verse)
e|-----------------|---------------------------------------------------------|
B|-----------------|---------------------------------------------------------|
G|-----------------|---------------------------------------------------------|
D|--------------8:-|-6-6-6-6-6-6-6-6--8-8-8-8-8-8-8-8------------------------|
A|--9:--4:--6:--6:-|-4-4-4-4-4-4-4-4--6-6-6-6-6-6-6-6---6:--4:---------------|
E|--7:--2:--4:-----|------------------------------------4:--2:---------------|

(chorus)
e|-------------------|
B|-------------------|
G|-------------------|
D|------9:---9--9-9--|
A|--9:--7:---7--7-7--|
E|--7:---------------|

(solo riff)
e|--6-7-7-7-7---|
B|--------------|
G|--------------|
D|--------------|
A|--------------|
E|--------------|



verse        1x
chorus       2x
verse        1x
chorus       4x
verse        1x
chorus       4x
solo riff    9x
verse        1x(second part only)
chorus       4x
verse        1x
chorus       6x





_________________
Mommy Can I Go Out and Kill Tonight?
_______
_______
Riff 1:
E---------------------------------
B---------------------------------
G---------------------------------
A-----------555555555-------------
D-777777777-333333333-----------7-
E-555555555-----------x's 3 ---5-

pause

Riff 2
E--------------------
B--------------------
G--------------------
D---5----------------
A-7-3-7-5----------5-
E-5---5-3 x's 8 ---3-


Riff 2 x's 8


RIff 2 x's 8


Riff 2 x's 8


Riff 2 x's 8


Riff 2 x's 8





_________________
Night of the Living Dead
_______
_______
INTRO/CH0RUS:5 TIMES
e|--------------------------------------------------------------------|
B|--------------------------------------------------------------------|
G|--------------------------------------------------------------------|
D|55555555-------------------33333333---------------------------------|
A|33333333-55555555-33333333-11111111---------------------------------|
E|---------33333333-11111111------------------------------------------|
  
  VERSE:(8 TIMES)  PRE-CHORUS
e|---------------|----------------------------------------------------|
B|---------------|----------------------------------------------------|
G|---------------|----------------------------------------------------|
D|-------33333333|-222233-333-2222233-3333-222223333------------------|
A|3333333--------|-000011-111-0000011-1111-000001111-55555555555------|
E|---------------|-----------------------------------33333333333------|

   CHORUS (SAME AS INTRO):4 TIMES
   2nd VERSE (ONLY 4 TIMES)
   PRE-CHOURUS
   CHOURUS
   
OUTRO:
e|--------------------------------------------------------------------|
B|--------------------------------------------------------------------|
G|--------------------------------------------------------------------|
D|--------------------------------------------------------------------|
A|555555555555555555555555555555555-----------------------------------|
E|333333333333333333333333333333333-----------------------------------|

-------------------------------------------------------------------------------





_________________
Skulls
_______
_______
Intro/1st verse
|------------------------------|
|------------------------------|
|------9---11---7--------------|
|--7---9---11---7--------------| (4x)
|--7---7---9----5--------------|
|--5---------------------------|

Chorus
|-----------|    |-------------------|
|-----------|    |-------------------|
|--------7--|    |-----------7---9---|
|--4-----7--|(3x)|--4----5---7---9---|
|--4-----5--|    |--4----5---5---7---|
|--2--------|    |--2----3-----------|

2nd verse
|------------------------------|
|------------------------------|
|------9---11---7--------------|
|--7---9---11---7--------------| (2x)
|--7---7---9----5--------------|
|--5---------------------------|

Chorus
|-----------|    |-------------------|
|-----------|    |-------------------|
|--------7--|    |-----------7---9---|
|--4-----7--|(3x)|--4----5---7---9---|
|--4-----5--|    |--4----5---5---7---|
|--2--------|    |--2----3-----------|

Bridge
|---------------------------------|     |------------------------|
|---10-------------10-------------|     |------------------------|
|---11---7---9-----11---7---9-----|     |---6-6-6-6-6-6-6-6------|
|---11---7---9-----11---7---9-----| (4X)|---6-6-6-6-6-6-6-6------|
|---9----5---7-----9----5---7-----|     |---4-4-4-4-4-4-4-4------|
|---------------------------------|     |------------------------|

Final Chorus
|-----------------------------|
|-----------------------------|
|--------7------------7---9---|
|--4-----7---4----5---7---9---|  (4x)
|--4-----5---4----5---5---7---|
|--2---------2----3-----------|

Outro
|------------------------------|
|------------------------------|
|---6--6--6--6--6--6--6--6--6--|
|---6--6--6--6--6--6--6--6--6--|
|---4--4--4--4--4--4--4--4--4--|
|------------------------------|




_________________
Violent World
_______
_______
Riff 1:
E--------------------
B--------------------
G--------------------
D-2222---------------
A-2222-5555-7777-5555
E-0000-3333-5555-3333  x's 6

Riff 2:
E--------------
B--------------
G--------------
D-666666-------
A-444444-666666
E--------444444 x's 4

Riff 1 x's 6

Riff 2 x's 4

Riff 1 x's 6

Riff 3:
E--------------------------------------------------------------------------
B--------------------------------------------------------------------------
G--------------------------------------------------------------------------
D-66666--------888888-3333333--------555555--------777777------------------
A-44444-666666-666666-1111111-333333-333333-555555-555555--66666666-6666666
E-------444444----------------111111--------333333---------44444444-4444444
pm                                                         ........

Riff 1 x's 6

Outro:
E-----------
B-----------
G-----------
D-2--2-----2
A-2--2--5--2
E-0--0--3--0




_________________
Devils Whorehouse
_______
_______
Verses....

1|-------------------------------------------|
2|-------------------------------------------|
3|-------------------------------------------|
4|-----------4---5------4-------5---7---9----|
5|-----------4---5------4-------5---7---9----|
6|-------0---2---3--0---2----0--3---5---7----|

she works at the devil's whorehouse....

Chorus...

1st time play:
1|-------------------------------------------|
2|-------------------------------------------|
3|-------------------------------------------|
4|--5--5--9--9---7--7--10101010--------------|
5|--3--3--7--7---5--5--8--8--8---------------|
6|-------------------------------------------|
2nd time play:
1|-------------------------------------------|
2|-------------------------------------------|
3|-------------------------------------------|
4|--5--5--9--9--7--7-101010-12-12------------|
5|--3--3--7--7--5--5--8--8--10-10------------|
6|-------------------------------------------|
when I sin I sin real goood...when I sin I sin for sure......

Bridge.....
1|--------------------------------------|
2|--------------------------------------|
3|--------------------------------------|
4|----7-7-7-7-7-7-7-7-7-7-7-7---2---3---|
5|----5-5-5-5-5-5-5-5-5-5-5-5---2---3---|
6|--------------------------------------|
come alive in the house that screams.....





_________________
Astro Zombies
_______
_______
intro
e|---------------------------------------|
b|---------------------------------------|
g|-5-5-5-4-4-------------2-2-2-2-4-4-4-4-|
d|-5-5-5-4-4--7-7-7-5-5--3-3-3-3-5-5-5-5-|
a|-3-3-3-2-2--7-7-7-5-5--3-3-3-3-5-5-5-5-|
E|------------5-5-5-3-3--1-1-1-1-3-3-3-3-|

riff 1
e|---------------------------------------|
b|---------------------------------------|
g|-5-5-5-5-5-5-10-10-9--2-2-2-2-4-4-4-4--|
d|-5-5-5-5-5-5-10-10-9--3-3-3-3-5-5-5-5--|
a|-3-3-3-3-3-3-8--8--7--3-3-3-3-5-5-5-5--|
E|----------------------1-1-1-1-3-3-3-3--|

verse
e|-------------------5~------------------|
b|-------------------5~------------------|
g|-5-5-5-5-5-5-5-5---5~------------------|
d|-5-5-5-5-5-5-5-5---7-7-7-7-7-7-7-7-----|
a|-3-3-3-3-3-3-3-3---7-7-7-7-7-7-7-7-----|
E|-------------------5-5-5-5-5-5-5-5-----|

e|---------------------------------------|
b|-9-9-9-9-9-9-9-9-----------------------|
g|-9-9-9-9-9-9-9-9--2-2-2-2-4-4-4-4------|
d|-9-9-9-9-9-9-9-9--3-3-3-3-5-5-5-5------|
a|-7-7-7-7-7-7-7-7--3-3-3-3-5-5-5-5------|
E|------------------1-1-1-1-3-3-3-3------|

Chorus
e|------------------5--------------------|
b|------------------5--------------------|
g|-5-5-5-5-5-5-5-5--5--------------------|
d|-5-5-5-5-5-5-5-5--7-7-7-7-7-7-7-7------|
a|-3-3-3-3-3-3-3-3--7-7-7-7-7-7-7-7------|
E|------------------5-5-5-5-5-5-5-5------|

e|---------------------------------------|
b|---------------------------------------|
g|-7-7-7-7-7-7-7-7--4-4-4-4-4-4-4-4------|
d|-7-7-7-7-7-7-7-7--5-5-5-5-5-5-5-5------|
a|-5-5-5-5-5-5-5-5--5-5-5-5-5-5-5-5------|
E|------------------3-3-3-3-3-3-3-3------|

outro
e|---------------------------------------|
b|---------------------------------------|
g|-5-5-5-4-4-------------2-2-2-2-2-2-----|
d|-5-5-5-4-4--7-7-7-5-5--3-3-3-3-3-3-----|
a|-3-3-3-2-2--7-7-7-5-5--3-3-3-3-3-3-----|
E|------------5-5-5-3-3--1-1-1-1-1-1-----|

e|---------------------------------------|
b|------------------5--------------------|
g|-4-4-4-4-4-4------5-------------5/-----|
d|-5-5-5-5-5-5------5-------------5/-----|
a|-5-5-5-5-5-5------3-(let ring)--3/-----|
E|-3-3-3-3-3-3---------------------------|

intro: x2
riff 1: x2
verse: x2
chorus: x2
riff 1: x2
verse: x2
chorus: x2
riff 1: x4
intro: x1
outro: x1





_________________
Brain Eaters
_______
_______
intro/first verse(brians for dinner...)
e|--------------------------------------------------------------------|
B|--------------------------------------------------------------------|
G|--------------------------------------------------------------------|
D|--------2222222---------44444444--------4444444-2222222-------------|
A|2222222-0000000-2222222-2222222-2222222-2222222-0000000-22222-------|
E|0000000---------0000000---------0000000----------------000000-------|

  bridge: (brians is all we ever get...)
e|--------------------------------------------------------------------|
B|--------------------------------------------------------------------|
G|--------------------------------------------------------------------|
D|22222222----------22222222-444444444444444--------------------------|
A|00000000-22222222-00000000-222222222222222--------------------------|
E|---------00000000---------------------------------------------------|
  
repeat first verse



comments
print report bad tab
I want to post or [tab]
guest
You may want to rate the tab now too:
select rating
Please do not post tabs as comments. Select "correction" instead!