Oops, an error
Loading. Please wait.

We Are 138 Tab

version 1
version 1

Whole song

by Misfits
17,439 views 24 this week
7 commentsread comments
1 2 3 4 5
x 13
add to favorites
launch autoscroll
font size
0
reset
how to read this tab
guitar tuner
×
Best way to learn
"We Are 138"
Autoscroll
slow
fast
+/-
esc
set tempo
stop
Song: We Are 138
Artists: Misfits
Album: Collection II
Tuning: Standard (ebgdaE)

[Intro]
e|---------------------|
B|---------------------|
G|-9-9-9-9-9-9--5-7----|
D|-9-9-9-9-9-9--5-7----|
A|-7-7-7-7-7-7--3-5----|
E|---------------------|

[Verse]
e|---------------------|
B|---------------------|
G|-9999999999-5-7------|
D|-9999999999-5-7------|
A|-7777777777-3-5------|
E|---------------------|
"We are 138, we are 138"

[Chorus]
e|---------------------|
B|---------------------|
G|-555555555-777777777-|
D|-555555555-777777777-|
A|-333333333-555555555-|
E|---------------------|
"We are..........138.."

[Solo]
e|-11h12-11h12-11h12-11h12-11h12-11h12-11h12-11h12-|
B|-------------------------------------------------|
G|-------------------------------------------------|
D|-------------------------------------------------|
A|-------------------------------------------------|
E|-------------------------------------------------|

e|-12-12-12-12-12-12-12-12-12b(1/2)-12b(1/2)-12b(full)-12b(full)-|
B|---------------------------------------------------------------|
G|---------------------------------------------------------------|
D|---------------------------------------------------------------|
A|---------------------------------------------------------------|
E|---------------------------------------------------------------|

[Outro]
e|------------------------------------------------------------------|
B|------------------------------------------------------------------|
G|-9-9-9-9--5-5-5-5--7-7-7-7--9-9-9-9-9-9-9-9--5-5-5-5--7-7-7-7--9~~|
D|-9-9-9-9--5-5-5-5--7-7-7-7--9-9-9-9-9-9-9-9--5-5-5-5--7-7-7-7--9~~|
A|-7-7-7-7--3-3-3-3--5-5-5-5--7-7-7-7-7-7-7-7--3-3-3-3--5-5-5-5--9~~|
E|------------------------------------------------------------------|
"8,8,8,8,8,8,8...."

************************************

| h  Hammer-on
| /  Slide up
| ~  Vibrato

************************************
Suggest correction
comments
print report bad tab
7 comments total. Showing first comments.
0 reply
kismet_moira 10 Jul 04, 2005 08:00 PM

loves it ;)

0 reply
RHCP_25 20 May 05, 2006 04:36 AM

this song is great

+1 reply
sickXguitarist 10 Jul 28, 2006 03:03 PM

YESS BRO!! this is 100% right!

guest
You may want to rate the tab now too:
select rating
Wanna post a correction for this tab? Suggest correction