Oops, an error
Loading. Please wait.

We Bite bass

version 1
version 1

Whole song

Interactive

by Misfits
1,593 views 3 this week
1 commentread comment
1 2 3 4 5
x 3
add to favorites
×
Save as Personal and add changes to this tab that will be seen only by you. Learn more ›
×
You can save this tab as Personal to edit and correct it or add notes. All changes will be seen only by you. Learn more »
launch autoscroll
font size
0
reset
guitar tuner
edit
Autoscroll
slow
fast
+/-
esc
set tempo
stop
Difficulty
Intro / Verse (we bite)
G---------------------------------|
D---------------------------------|
A---------------------------------|
E-7-7-7-7-5-5-5-5-3-3-3-3-3-3-3-3-|


Chorus (And when I get Your Blood)
G---------------------------------|
D---------------------------------|
A-----------------5-5-5-5-5-5-5-5-|
E-5-5-5-5-5-5-5-5-----------------|
Suggest correction
Creating personal tab
Creating personal tab
You can edit any tab online and save it as your Personal.

You can edit, replace or remove any tab part or add personal notes – all changes will be seen only by you.

Personal tabs can be accessed anytime from any device, even offline.
Learn more »
Give kudos to tab author, rate the tab!
1 2 3 4 5
comments
print report bad tab
1 comment total.
+1 reply
WildIrish 5,055 Aug 14, 2007 12:21 AM

begging was good try this tho tabing is all about how you hear it

Verse
G|----------------------------------------
D|----------------------------------------
A|-----------------------------------------
E|-7-7-7-7-5-5-5-5-3-3-3-3-3-3-3-3---------

Chorus
G|--------------------------------------------
D|--------------------------------------------
A|-5-5-5-5-5-5-5-5-----------------------------
E|-----------------3-3-3-3-3-3-3-3-------------

Comes At End Of Chorus
G|---------------------------------------
D|---------------------------------------
A|---------------------------------------
E|-2-2-2-2-2-2-2-2-----------------------

guest
Wanna post a correction for this tab? Suggest correction