Oops, an error
Loading. Please wait.
We have an official Where Eagles Dare tab made by UG professional guitarists. Check out the tab »
×
by Misfits
38,540 views 66 this week
3 commentsread comments
1 2 3 4 5
x 19
add to favorites
launch autoscroll
font size
0
reset
how to read this tab
guitar tuner
Autoscroll
slow
fast
+/-
esc
set tempo
stop
Tuning: Standard

[Intro]
e|------------------------|
B|------------------------|
G|------------------------|
D|-7-7-7-7-7-7-7-7-7-7--5-|
A|-7-7-7-7-7-7-7-7-7-7--5-|
E|-5-5-5-5-5-5-5-5-5-5--3-|

[Chorus]

e|-------------------------|
B|-------------------------|
G|-5-5-5-5-----------------|
D|-5-5-5-5--3-3-3-3--------|
A|-3-3-3-3--3-3-3-3--5-5-5-|
E|----------1-1-1-1--3-3-3-|

I aint no goddamn son ofa bitch... haha best part..
Suggest correction
comments
print report bad tab
3 comments total.
0 reply
Misfits_91 10 Jan 08, 2008 06:29 PM

great tab but i think the chorus wrong

+1 reply
afi1994 10 Apr 30, 2008 12:33 PM

ita too easy lol

0 reply
L.A.M.F. 77' 281 Nov 25, 2008 01:47 PM

where's the solo? haha just messin'.

guest
You may want to rate the tab now too:
select rating
Wanna post a correction for this tab? Suggest correction