Oops, an error
Loading. Please wait.

Ihe tab

version 1
version 1

Whole song

Interactive

4,358 views 27 this week
no commentswrite comment
1 2 3 4 5
x 3
add to favorites
×
Save as Personal and add changes to this tab that will be seen only by you. Learn more ›
×
You can save this tab as Personal to edit and correct it or add notes. All changes will be seen only by you. Learn more »
launch autoscroll
font size
0
reset
how to read this tab
guitar tuner
edit
Autoscroll
slow
fast
+/-
esc
set tempo
stop
Tabbed by: Ljvcorp
Tuning:C,G,C,F,A,D

[Intro 1] 
(Both Guitars)
e|---------------------------------------------------------------------------|
B|---------------------------------------------------------------------------|
G|---------------------------------------------------------------------------|
D|------7-------7-------5---------8------------------------------------------|   2x
A|----8-------8-------5---------8--------------------------------------------|
E|--0-------0-------5-------5/8----------------------------------------------|

[Intro 2] 
(Both Guitars)
e|---------------------------------------------------------------------------|
B|---------------------------------------------------------------------------|
G|---------------------------------------------------------------------------|
D|------7-------5---------8--------------------------------------------------|   4x
A|----8-------5---------8----------------------------------------------------|
E|--0-------5-------5/8------------------------------------------------------|

[After intro 2]
(has been played twice, a second guitar plays this harmony)
e|---------------------------------------------------------------------------|
B|---------------------------------------------------------------------------|
G|------5--------------------------------------------------------------------|
D|----7---------8---------12-------------------------------------------------|   2x
A|------------5---------8----------------------------------------------------|
E|--0-------5-------5/8------------------------------------------------------|

(Build up: Guitar 1)
(all notes are palm muted)
e|---------------------------------------------------------------------------|
B|---------------------------------------------------------------------------|
G|---------------------------------------------------------------------------|
D|---------------------------------------------------------------------------|
A|---------------------------------------------------------------------------|
E|--0--0000000-0000000-0000000-0000000-0000000-0000000-0000000-000000--------|

e|---------------------------------------------------------------------------|
B|---------------------------------------------------------------------------|
G|---------------------------------------------------------------------------|
D|---------------------------------------------------------------------------|
A|--0------------------------------------------------------------------------|
E|--0------------------------------------------------------------------------|

(Both guitars)
e|---------------------------------------------------------------------------|
B|---------------------------------------------------------------------------|
G|---------------------------------------------------------------------------|
D|---------------------------------------------------------------------------|
A|---------------------------------------------------------------------------|
E|--0--0000000-0000000-0000000-0000000-0000000-0000000-0000000-000000--------|

[Main riff] x2
(Both guitars)
e|---------------------------------------------------------------------------|
B|---------------------------------------------------------------------------|
G|---------------------------------------------------------------------------|
D|---------------------------------------------------------------------------|
A|---------------------------------------------------------------------------|
E|--000000-0-0000-7h8p7p5h7p0-000000-3-00-3-2--------------------------------|
    ******   ****             ******   **
e|---------------------------------------------------------------------------|
B|---------------------------------------------------------------------------|
G|---------------------------------------------------------------------------|
D|---------------------------------------------------------------------------|
A|---------------------------------------------------------------------------|
E|--000000-0-0000-7h8p7p5h777777-55-77-55-33-55------------------------------|
    ******   ****
e|---------------------------------------------------------------------------|
B|---------------------------------------------------------------------------|
G|---------------------------------------------------------------------------|
D|---------------------------------------------------------------------------|
A|---------------------------------------------------------------------------|
E|--000000-0-0000-7h8p7p5h7p0-000000-3-00-3-2--------------------------------|
    ******   ****             ******   **
e|---------------------------------------------------------------------------|
B|---------------------------------------------------------------------------|
G|---------------------------------------------------------------------------|
D|---------------------------------------------------------------------------|
A|---------------------------------------------------------------------------|
E|--000000-0-0000-7h8p7p5h77-88-77-55-77-55-33-55----------------------------|
    ******   ****

[Verse 2]
(Both guitars)
(Main riff is still played during this section.)
e|---------------------------------------------------------------------------|
B|---------------------------------------------------------------------------|
G|---------------------------------------------------------------------------|
D|---------------------------------------------------------------------------|
A|--000000000--000000000-----------------------------------------------------|
E|--000000000--000000000-----------------------------------------------------|
    *********  *********

[Breakdown]
[Main riff] x2
(Both guitars)
e|---------------------------------------------------------------------------|
B|---------------------------------------------------------------------------|
G|---------------------------------------------------------------------------|
D|---------------------------------------------------------------------------|
A|---------------------------------------------------------------------------|
E|--000000-0-0000-7h8p7p5h7p0-000000-3-00-3-2--------------------------------|
    ******   ****             ******   **
e|---------------------------------------------------------------------------|
B|---------------------------------------------------------------------------|
G|---------------------------------------------------------------------------|
D|---------------------------------------------------------------------------|
A|---------------------------------------------------------------------------|
E|--000000-0-0000-7h8p7p5h777777-55-77-55-33-55------------------------------|
    ******   ****
e|---------------------------------------------------------------------------|
B|---------------------------------------------------------------------------|
G|---------------------------------------------------------------------------|
D|---------------------------------------------------------------------------|
A|---------------------------------------------------------------------------|
E|--000000-0-0000-7h8p7p5h7p0-000000-3-00-3-2--------------------------------|
    ******   ****             ******   **
e|---------------------------------------------------------------------------|
B|---------------------------------------------------------------------------|
G|---------------------------------------------------------------------------|
D|---------------------------------------------------------------------------|
A|---------------------------------------------------------------------------|
E|--000000-0-0000-7h8p7p5h77-88-77-55-77-55-33-55----------------------------|

[Short lead]
e|--5h6p5---5---5---------------------------------------------------------------------|
B|------------------------------------------------------------------------------------|
G|------------7-----------------------------------------------------------------------|
D|--------7---------------------------------------------------------------------------|
A|------------------------------------------------------------------------------------|
E|------------------------------------------------------------------------------------|

[Lead into chorus]
e|-----------|
B|-----------|
G|-----------|
D|-----------|
A|-----------|
E|--0-0-0-0--|
    * * * *
e|---------------------------------------------------------------------------------------|
B|---------------------------------------------------------------------------------------|
G|---------------------------------------------------------------------------------------|
D|--5---------x-7--------8---------------------------------------------------------------|   2x
A|--5--(12x)--x-7--(3x)--8--(12x)--8-7-5-7--0-000-0---8-7--5---0-000-0---8-87-5----------|
E|--5---------x-7--------8---------8-7-5-7--0-000-0--0-0-00-0--0-000-0--0-0--0-0---------|
                                   * * * *     **    * * ** *     **    * *  * *
[Lead]
e|---------------------------------------------------------------------------------5h6p5--5--5---------|
B|-----------------------------------------------------------------------------------------------------|
G|--7-7-7-7-7-7-7-7-7-7-7-7-9-9-9-9-10101010101010101010-12-12-12-12-12-12-12-12------------7--(2x)----|
D|--5-5-5-5-5-5-5-5-5-5-5-5-7-7-7-7-7-7-7-7-7-7-7-7-7-7--10-10-10-10-10-10-10-10--------7--------------|   2x
A|-----------------------------------------------------------------------------------------------------|
E|-----------------------------------------------------------------------------------------------------|

[Verse 2]
[Main riff]
(Both guitars)
e|---------------------------------------------------------------------------|
B|---------------------------------------------------------------------------|
G|---------------------------------------------------------------------------|
D|---------------------------------------------------------------------------|
A|---------------------------------------------------------------------------|
E|--000000-0-0000-7h8p7p5h7p0-000000-3-00-3-2--------------------------------|
    ******   ****             ******   **
e|---------------------------------------------------------------------------|
B|---------------------------------------------------------------------------|
G|---------------------------------------------------------------------------|
D|---------------------------------------------------------------------------|
A|---------------------------------------------------------------------------|
E|--000000-0-0000-7h8p7p5h777777-55-77-55-33-55------------------------------|
    ******   ****
e|---------------------------------------------------------------------------|
B|---------------------------------------------------------------------------|
G|---------------------------------------------------------------------------|
D|---------------------------------------------------------------------------|
A|---------------------------------------------------------------------------|
E|--000000-0-0000-7h8p7p5h7p0-000000-3-00-3-2--------------------------------|
    ******   ****             ******   **
e|---------------------------------------------------------------------------|
B|---------------------------------------------------------------------------|
G|---------------------------------------------------------------------------|
D|---------------------------------------------------------------------------|
A|---------------------------------------------------------------------------|
E|--000000-0-0000-7h8p7p5h77-88-77-55-77-55-33-55----------------------------|

[Solo]
e|--6-5---5-6-5-6-5---5-6-9-6-5---5----------9-8----8-9-8-9-8----8-9-12-9-8----8--------|
B|------8-----------8-----------8----(2x)--------11-----------11------------11----(2x)--|
G|--------------------------------------------------------------------------------------|
D|--------------------------------------------------------------------------------------|
A|--------------------------------------------------------------------------------------|
E|--------------------------------------------------------------------------------------|

                                                |------tremolo picking-------|
e|--9-8----8-9-8-9-8----8-9-12-9-8----8----------12---9---15---12---15---18--|
B|------11-----------11------------11----------------------------------------|
G|---------------------------------------------------------------------------|
D|---------------------------------------------------------------------------|
A|---------------------------------------------------------------------------|
E|---------------------------------------------------------------------------|

[Tapping section]      |---T---|                            |---T---|                      |---T-------------|
e|--17T-13-10-9-10-13--17/18\17-13-10-9--17T-15-12-9-12-9--17/18\17--20T-17-13-12-13-17--20/22\20-17-13-12--|
B|----------------------------------------------------------------------------------------------------------|
G|----------------------------------------------------------------------------------------------------------|
D|----------------------------------------------------------------------------------------------------------|
A|----------------------------------------------------------------------------------------------------------|
E|----------------------------------------------------------------------------------------------------------|

            |--tremolo-picking--|
e|--24b~~~~--17--18--20--21--22----|
B|---------------------------------|
G|---------------------------------|
D|---------------------------------|
A|---------------------------------|
E|---------------------------------|

[Main riff]
(Both guitars)
e|---------------------------------------------------------------------------|
B|---------------------------------------------------------------------------|
G|---------------------------------------------------------------------------|
D|---------------------------------------------------------------------------|
A|---------------------------------------------------------------------------|
E|--000000-0-0000-7h8p7p5h7p0-000000-3-00-3-2--------------------------------|
    ******   ****             ******   **
e|---------------------------------------------------------------------------|
B|---------------------------------------------------------------------------|
G|---------------------------------------------------------------------------|
D|---------------------------------------------------------------------------|
A|---------------------------------------------------------------------------|
E|--000000-0-0000-7h8p7p5h777777-55-77-55-33-55------------------------------|
    ******   ****
e|---------------------------------------------------------------------------|
B|---------------------------------------------------------------------------|
G|---------------------------------------------------------------------------|
D|---------------------------------------------------------------------------|
A|---------------------------------------------------------------------------|
E|--000000-0-0000-7h8p7p5h7p0-000000-3-00-3-2--------------------------------|
    ******   ****             ******   **
e|---------------------------------------------------------------------------|
B|---------------------------------------------------------------------------|
G|---------------------------------------------------------------------------|
D|---------------------------------------------------------------------------|
A|---------------------------------------------------------------------------|
E|--000000-0-0000-7h8p7p5h77-88-77-55-77-55-33-55----------------------------|

[Breakdown]
[Main riff] x2
(Both guitars)
e|---------------------------------------------------------------------------|
B|---------------------------------------------------------------------------|
G|---------------------------------------------------------------------------|
D|---------------------------------------------------------------------------|
A|---------------------------------------------------------------------------|
E|--000000-0-0000-7h8p7p5h7p0-000000-3-00-3-2--------------------------------|
    ******   ****             ******   **
e|---------------------------------------------------------------------------|
B|---------------------------------------------------------------------------|
G|---------------------------------------------------------------------------|
D|---------------------------------------------------------------------------|
A|---------------------------------------------------------------------------|
E|--000000-0-0000-7h8p7p5h777777-55-77-55-33-55------------------------------|
    ******   ****
e|---------------------------------------------------------------------------|
B|---------------------------------------------------------------------------|
G|---------------------------------------------------------------------------|
D|---------------------------------------------------------------------------|
A|---------------------------------------------------------------------------|
E|--000000-0-0000-7h8p7p5h7p0-000000-3-00-3-2--------------------------------|
    ******   ****             ******   **
e|---------------------------------------------------------------------------|
B|---------------------------------------------------------------------------|
G|---------------------------------------------------------------------------|
D|---------------------------------------------------------------------------|
A|---------------------------------------------------------------------------|
E|--000000-0-0000-7h8p7p5h77-88-77-55-77-55-33-55----------------------------|


************************************

| /  Slide up
| h  Hammer-on
| p  Pull-off
| x  Dead note
| \  Slide down

************************************

            
            
Suggest correction
Creating personal tab
Creating personal tab
You can edit any tab online and save it as your Personal.

You can edit, replace or remove any tab part or add personal notes – all changes will be seen only by you.

Personal tabs can be accessed anytime from any device, even offline.
Learn more »
Give kudos to tab author, rate the tab!
1 2 3 4 5
comments
print report bad tab
guest
You may want to rate the tab now too:
select rating
Wanna post a correction for this tab? Suggest correction