Oops, an error
Loading. Please wait.

Lost In The Grey tab

version 1
version 1

Whole song

  • Here's the original version of Miss May I - Lost i... Show more

Interactive

364 views 24 this week
no commentswrite comment
1 2 3 4 5
2 more votes to show rating
add to favorites
×
Save as Personal and add changes to this tab that will be seen only by you. Learn more ›
×
You can save this tab as Personal to edit and correct it or add notes. All changes will be seen only by you. Learn more »
launch autoscroll
font size
0
reset
how to read this tab
guitar tuner
edit
Autoscroll
slow
fast
+/-
esc
set tempo
stop
Tuning Drop C


[Intro]

D|----------------------------------------|
A|---------10-----------------------------|
F|--10------------12--10-9-----9----9h10--|
C|------12-----12-----------10---10-------|
G|----------------------------------------|
C|----------------------------------------| x3
                            *    *           

D|----------------------------------------|
A|---------10-----11--10------------------|
F|--10-------------------12-----9----9h10-|
C|------12-----12------------10---10------|
G|----------------------------------------|
C|----------------------------------------| 
                             *    * 


[Verse 1]

D|---------------------|-------------------|-----------------------------------------|
A|--  only guitar 2  --|-------------------|-----------------------------------------|
F|-----------------------------------------|-----------------------------------------|
C|-----------------------------------------|-----------------------------------------|
G|---------8-8-8-8-8-8---------8-8-8-8-8-8-|---------8-8-8-8-8-8---------8-8-8-8-8-8-|
C|-0-0-0-0-------------0-0-0-0-------------|-0-0-0-0-------------0-0-0-0-------------|
   * * * *             * * * *               * * * *             * * * * 

D|-----------------------------------------|-----------------------------------------|
A|-----------------------------------------|-----------------------------------------|
F|-----------------------------------------|-----------------------------------------|
C|-----------------------------------------|-----------------------------------------|  
G|---------8-8-8-8-8-8---------8-8-8-8-8-8-|---------8-8-8-8-8-8---------8-8-8-8-8-8-|
C|-8-8-8-8-------------8-8-8-8-------------|-5-5-5-5-------------5-5-5-5-------------|
   * * * *             * * * *               * * * *             * * * * 

D|-----------------------------------------|-----------------------------------------|
A|-----------------------------------------|-----------------------------------------|
F|-----------------------------------------|-----------------------------------------|
C|-----------------------------------------|-----------------------------------------|
G|---------8-8-8-8-8-8---------8-8-8-8-8-8-|---------8-8-8-8-8-8---------7-7-7-7-7-7-|
C|-0-0-0-0-------------0-0-0-0-------------|-0-0-0-0-------------0-0-0-0-------------|
   * * * *             * * * *               * * * *             * * * * 

D|-----------------------------------------|-----------------------------------------|
A|-----------------------------------------|-----------------------------------------|
F|-----------------------------------------|-----------------------------------------|
C|-----------------------------------------|-----------------------------------------|  
G|---------8-8-8-8-8-8---------8-8-8-8-8-8-|---------8-8-8-8-8-8---------8-8-8-8-8-8-|
C|-8-8-8-8-------------8-8-8-8-------------|-5-5-5-5-------------5-5-5-5-------------|


[Verse 2]

D|--------------------------------------------|-----------------------------------------|
A|--------------------------------------------|-----------------------------------------|
F|--------------------------------------------|-----------------------------------------|
C|--------------------------------------------|-----------------------------------------|
G|--0---0-0-0---0-0-0---0-0-0-0-0---0-0-0-0-0-|--0---0-0-0---0-0-0---0---0-0-0---0-0-0--|
C|--0---0-0-0---0-0-0---0-0-0-0-0---0-0-0-0-0-|--0---0-0-0---0-0-0---0---0-0-0---0-0-0--|x2
    *   * * *   * * *   * * * * *   * * * * *    *   * * *   * * *   *   * * *   * * * 


[Pre-Chorus]

D|--------------------------------------------------|
A|--------------------------------------------------|
F|--------------------------------------------------|
C|--0-----------------------------------------------|
G|--0----0--0--0--0--0--0--2--2--2--2--2--2--2--2---|
C|--0----0--0--0--0--0--0--2--2--2--2--2--2--2--2---|
         *  *  *  *  *  *  *  *  *  *  *  *  *  *


[Chorus]

[guitar 1]
D|--------------------------------------------|
A|--------------------------------------------|
F|--------------------------------------------|
C|--0--------0--2--3--10--8--------5----3--7--|
G|--0--------0--2--3--10--8--------5----3--7--|
C|--0--------0--2--3--10--8--------5----3--7--|x2

[guitar 2] [intro Riff]

D|----------------------------------------|
A|---------10-----------------------------|
F|--10------------12--10-9-----9----9h10--|
C|------12-----12-----------10---10-------|
G|----------------------------------------|
C|----------------------------------------| x3
                            *    *           

D|----------------------------------------|
A|---------10-----11--10------------------|
F|--10-------------------12-----9----9h10-|
C|------12-----12------------10---10------|
G|----------------------------------------|
C|----------------------------------------| 
                             *    * 



[Verse 1]


D|---------------------|-------------------|-----------------------------------------|
A|--  only guitar 2  --|-------------------|-----------------------------------------|
F|-----------------------------------------|-----------------------------------------|
C|-----------------------------------------|-----------------------------------------|
G|---------8-8-8-8-8-8---------8-8-8-8-8-8-|---------8-8-8-8-8-8---------8-8-8-8-8-8-|
C|-0-0-0-0-------------0-0-0-0-------------|-0-0-0-0-------------0-0-0-0-------------|
   * * * *             * * * *               * * * *             * * * * 

D|-----------------------------------------|-----------------------------------------|
A|-----------------------------------------|-----------------------------------------|
F|-----------------------------------------|-----------------------------------------|
C|-----------------------------------------|-----------------------------------------|  
G|---------8-8-8-8-8-8---------8-8-8-8-8-8-|---------8-8-8-8-8-8---------8-8-8-8-8-8-|
C|-8-8-8-8-------------8-8-8-8-------------|-5-5-5-5-------------5-5-5-5-------------|
   * * * *             * * * *               * * * *             * * * * 

D|-----------------------------------------|-----------------------------------------|
A|-----------------------------------------|-----------------------------------------|
F|-----------------------------------------|-----------------------------------------|
C|-----------------------------------------|-----------------------------------------|
G|---------8-8-8-8-8-8---------8-8-8-8-8-8-|---------8-8-8-8-8-8---------7-7-7-7-7-7-|
C|-0-0-0-0-------------0-0-0-0-------------|-0-0-0-0-------------0-0-0-0-------------|
   * * * *             * * * *               * * * *             * * * * 

D|-----------------------------------------|-----------------------------------------|
A|-----------------------------------------|-----------------------------------------|
F|-----------------------------------------|-----------------------------------------|
C|-----------------------------------------|-----------------------------------------|  
G|---------8-8-8-8-8-8---------8-8-8-8-8-8-|---------8-8-8-8-8-8---------8-8-8-8-8-8-|
C|-8-8-8-8-------------8-8-8-8-------------|-5-5-5-5-------------5-5-5-5-------------|



[Verse 2]

D|--------------------------------------------|-----------------------------------------|
A|--------------------------------------------|-----------------------------------------|
F|--------------------------------------------|-----------------------------------------|
C|--------------------------------------------|-----------------------------------------|
G|--0---0-0-0---0-0-0---0-0-0-0-0---0-0-0-0-0-|--0---0-0-0---0-0-0---0---0-0-0---0-0-0--|
C|--0---0-0-0---0-0-0---0-0-0-0-0---0-0-0-0-0-|--0---0-0-0---0-0-0---0---0-0-0---0-0-0--|x2
    *   * * *   * * *   * * * * *   * * * * *    *   * * *   * * *   *   * * *   * * * 


[Pre-Chorus]

D|--------------------------------------------------|
A|--------------------------------------------------|
F|--------------------------------------------------|
C|--0-----------------------------------------------|
G|--0----0--0--0--0--0--0--2--2--2--2--2--2--2--2---|
C|--0----0--0--0--0--0--0--2--2--2--2--2--2--2--2---|
         *  *  *  *  *  *  *  *  *  *  *  *  *  *


[Chorus]

[guitar 1]
D|--------------------------------------------|
A|--------------------------------------------|
F|--------------------------------------------|
C|--0--------0--2--3--10--8--------5----3--7--|
G|--0--------0--2--3--10--8--------5----3--7--|
C|--0--------0--2--3--10--8--------5----3--7--|x2

[guitar 2] [intro Riff]
D|----------------------------------------|
A|---------10-----------------------------|
F|--10------------12--10-9-----9----9h10--|
C|------12-----12-----------10---10-------|
G|----------------------------------------|
C|----------------------------------------| x3
                            *    *           

D|----------------------------------------|
A|---------10-----11--10------------------|
F|--10-------------------12-----9----9h10-|
C|------12-----12------------10---10------|
G|----------------------------------------|
C|----------------------------------------| 
                             *    * 

[Verse 3]

D|----------------------------------|--------------------------------------|
A|----------------------------------|--------------------------------------|
F|----------------------------------|--------------------------------------|
C|----------------------------------|--------------------------------------|
G|--0-0-0-0-0-0-0-0-0-0-0-0-0-0-0-0-|-0-0-0-0-2-2-2-2-3-3-3-3-10-10-10-10--|
C|--0-0-0-0-0-0-0-0-0-0-0-0-0-0-0-0-|-0-0-0-0-2-2-2-2-3-3-3-3-10-10-10-10--|
    * * * * * * * * * * * * * * * *   * * * * * * * * * * * * *  *  *  *   

D|----------------------------------|----------------------------------|
A|----------------------------------|----------------------------------|
F|----------------------------------|----------------------------------|
C|----------------------------------|----------------------------------|
G|--8-8-8-8-8-8-8-8-8-8-8-8-8-8-8-8-|-5-5-5-5-5-5-5-5-3-3-3-3-7-7-7-7--|
C|--8-8-8-8-8-8-8-8-8-8-8-8-8-8-8-8-|-5-5-5-5-5-5-5-5-3-3-3-3-7-7-7-7--|
    * * * * * * * * * * * * * * * *   * * * * * * * * * * * * * * * *  
 
[intro Riff]
D|----------------------------------------|
A|---------10-----------------------------|
F|--10------------12--10-9-----9----9h10--|
C|------12-----12-----------10---10-------|
G|----------------------------------------|
C|----------------------------------------| x3
                            *    *           

D|----------------------------------------|
A|---------10-----11--10------------------|
F|--10-------------------12-----9----9h10-|
C|------12-----12------------10---10------|
G|----------------------------------------|
C|----------------------------------------| 
                             *    * 


[bridge]
D|--------------------------|
A|---------10-------14b-----|
F|--10----------------------|
C|-----12-------------------|
G|--------------------------|
C|--------------------------|


[Verse 2]

D|--------------------------------------------|-----------------------------------------|
A|--------------------------------------------|-----------------------------------------|
F|--------------------------------------------|-----------------------------------------|
C|--------------------------------------------|-----------------------------------------|
G|--0---0-0-0---0-0-0---0-0-0-0-0---0-0-0-0-0-|--0---0-0-0---0-0-0---0---0-0-0---0-0-0--|
C|--0---0-0-0---0-0-0---0-0-0-0-0---0-0-0-0-0-|--0---0-0-0---0-0-0---0---0-0-0---0-0-0--|x2
    *   * * *   * * *   * * * * *   * * * * *    *   * * *   * * *   *   * * *   * * * 



[Verse 4] (basically the same as Verse 2 but without fret-hand-muting and upstrokes)

D|-------------------------------------------|-----------------------------------------|
A|-------------------------------------------|-----------------------------------------|
F|-------------------------------------------|--------------------------------------9--|
C|-------------------------------------------|-----------------------------------------|
G|--0----0--0----0--0----0--0--0----0--0--0--|--0----0--0----0--0----0----0--0----0----|
C|--0----0--0----0--0----0--0--0----0--0--0--|--0----0--0----0--0----0----0--0----0----|
    *    *  *    *  *    *  *  *    *  *  *     *    *  *    *  *    *    *  *    * P.H.

D|-------------------------------------------|---------------------------------------------|
A|-------------------------------------------|---------------------------------------------|
F|-------------------------------------------|---------------------------------------------|
C|-------------------------------------------|---------------------------------------------|
G|--0----0--0----0--0----0--0--0----0--0--0--|--0----0--0----0--0----0-0-0---0-0-0----0----|
C|--0----0--0----0--0----0--0--0----0--0--0--|--0----0--0----0--0----0-0-0---0-0-0----0----|
    *    *  *    *  *    *  *  *    *  *  *     *    *  *    *  *   




************************************
 
| b    Bend
| *    palm-muted
| P.H. pitch harmonic

************************************
Suggest correction
Creating personal tab
Creating personal tab
You can edit any tab online and save it as your Personal.

You can edit, replace or remove any tab part or add personal notes – all changes will be seen only by you.

Personal tabs can be accessed anytime from any device, even offline.
Learn more »
Give kudos to tab author, rate the tab!
1 2 3 4 5
comments
print report bad tab
guest
You may want to rate the tab now too:
select rating
Wanna post a correction for this tab? Suggest correction