Oops, an error
Loading. Please wait.

Relentless Chaos guitar pro

version 1
version 1

Whole song

Interactive

38,748 views 18 this week
3 commentsread comments
1 2 3 4 5
x 25
add to favorites
guitar tuner
Autoscroll
slow
fast
+/-
esc
set tempo
stop
"Relentless Chaos"
demo version
Play now

or get full version for Free

×
Get full version now!
Learn and play this song
in Tab Pro
Try for free

or get $10 off Welcome Bonus

Get welcome bonus
Get access to Tab Pro version of “Relentless Chaos”!
Tab Pro is a premium guitar tab service, available on PC, Mac, iOS and Android
TRY FOR FREE
Your download will start in 7 seconds
×
Like this song? We have more! Follow us on Facebook for daily tips, lessons and other guitar-related content.
To download “Relentless Chaos” Guitar Pro tab click button below
Please note that you must have Guitar Pro software installed on your
computer in order to view this file.
Suggest correction
comments
report bad tab
3 comments total.
0 reply
scottismad 4,040 Aug 03, 2010 10:19 PM

not sure why the other person gave you 3*
but this tab was near perfect
couple of mistakes but deffinitly learnable
5*

0 reply
!Mike! 432 Dec 24, 2011 07:21 PM

i also dont understand why someone gave you 3 stars the only thing wrong with this tab is some vocal melodies but who cares about that 5 stars from me :)

0 reply
lolballs 68 Feb 22, 2014 09:05 AM

Hey this is awesome! The only "mistake" I found is the intro, the guitars actually go like this:

Left Guitar:
D|---------------------------------------------------| x2
A|---------------------------------------------------|
F|-14-----12---14---10-----10-------10---------------|
C|----0-0----0----0----0-0----0-0-0----0-------------|
G|---------------------------------------------------|
C|---------------------------------------------------|

D|---------------------------------------------------| x2
A|---------------------------------------------------|
F|---------------------------------------------------|
C|-14-------12----14----10-------10----------10------|
G|----12-12----12----12----12-12----12-12-12----12---|
C|---------------------------------------------------|

Right Guitar:

D|----------------------------------------------------| x2
A|----------------------------------------------------|
F|-10-----9---10---7-----7-------7--------------------|
C|----0-0---0----0---0-0---0-0-0---0------------------|
G|----------------------------------------------------|
C|----------------------------------------------------|

D|----------------------------------------------------| x2
A|----------------------------------------------------|
F|-12-----10---10---9-----9-------9-------------------|
C|----7-7----7----7---7-7---7-7-7---7-----------------|
G|----------------------------------------------------|
C|----------------------------------------------------|

Great tab though, 5 stars!

guest