Oops, an error
Loading. Please wait.

Under Fire tab

version 1
version 1

Whole song

Interactive

22 views 6 this week
no commentswrite comment
1 2 3 4 5
3 more votes to show rating
add to favorites
×
Save as Personal and add changes to this tab that will be seen only by you. Learn more ›
×
You can save this tab as Personal to edit and correct it or add notes. All changes will be seen only by you. Learn more »
launch autoscroll
font size
0
reset
how to read this tab
guitar tuner
edit
Autoscroll
slow
fast
+/-
esc
set tempo
stop
[Under Fire]
[Shadows Inside]
[Miss May I]

Tuning: C G C F A D
Playthrough: https://www.youtube.com/edit?o=U&video_id=gstVe5ERfho

[Riff 1a] - [00:00] - [00:22]
- -----------------------------------------------------------------
- -----------------------------------------------------------------
- -----------------------------------------------------------------
- -4-----------------------------------------------4-------4-------
- -4-----------------------------------------------4-------4-------
- -4-----------------------------------------------4-------4-------

- -----------------------------------------------------------------
- -----------------------------------------------------------------
- -----------------------------------------------------------------
- -0-------------------------------------------------------0-------
- -0-------------------------------------------------------0-------
- -0-------------------------------------------------------0-------

- -----------------------------------------------------------------
- -----------------------------------------------------------------
- -----------------------------------------------------------------
- -4-----------------------------------------------4-------4-------
- -4-----------------------------------------------4-------4-------
- -4-----------------------------------------------4-------4-------

- -----------------------------------------------------------------
- -----------------------------------------------------------------
- -----------------------------------------------------------------
- -0---------------------------------------------------------------
- -0---------------------------------------------------------------
- -0-----------------------------------------------444-4-444-4-444-
PM                                                 ...............


[Riff 1b, Guitar 1 & 2] - [00:00] - [00:22]
- -----------------------------------------------------------------------------------
- -------------------------------------9/10------------------------------------------
- -11---11/13---13\11---9/11---11/13--------11---11/13---13\11---9/11---11/13---13\9-
- -----------------------------------------------------------------------------------
- ----9-------9-------9------9-------9---------9-------9-------9------9-------9------
- -----------------------------------------------------------------------------------
PM    .       .       .      .       .         .       .       .      .       .
- -----------------------------------------------------------------------------------
- -------------------------------------9/10------------------------------------------
- -11---11/13---13\11---9/11---11/13--------11---11/13---13\11---9/11---11/13---13\9-
- -----------------------------------------------------------------------------------
- ----9-------9-------9------9-------9---------9-------9-------9------9-------9------
- -----------------------------------------------------------------------------------
PM    .       .       .      .       .         .       .       .      .       .


- -----------------------------------------------------------------------------------
- -------------------------------------9/10----------------------10-9----10-9------9-
- -11---11/13---13\11---9/11---11/13--------11---11/13---13\11--------11------9-11---
- ----0-------0-------0------0-------0---------0-------0-------0---------------------
- -----------------------------------------------------------------------------------
- -----------------------------------------------------------------------------------
PM    .       .       .      .       .         .       .       .
- -----------------------------------------------------------------------------------
- -------------------------------------9/10----------------------10-9----10-9------9-
- -11---11/13---13\11---9/11---11/13--------11---11/13---13\11--------11------9-11---
- ----0-------0-------0------0-------0---------0-------0-------0---------------------
- -----------------------------------------------------------------------------------
- -----------------------------------------------------------------------------------
PM    .       .       .      .       .         .       .       .


- ------------------------------------------------------------------------------------
- -------------------------------------9/10-------------------------------------------
- -11---11/13---13\11---9/11---11/13---------11---11/13---13\11---9/11---11/13---13\9-
- ------------------------------------------------------------------------------------
- ----9-------9-------9------9-------9----------9-------9-------9------9-------9------
- ------------------------------------------------------------------------------------
PM    .       .       .      .       .          .       .       .      .       .
- ------------------------------------------------------------------------------------
- -10---10/12---12\10---9/10---10/12---12/14-10---10/12---12\10---9/10---10/12---12/9-
- ----11------11------11-----11------11---------11------11------11-----11------11-----
- ------------------------------------------------------------------------------------
- ------------------------------------------------------------------------------------
- ------------------------------------------------------------------------------------
PM    ..      ..      ..     ..      ..         ..      ..      ..     ..      ..


- ------------------------------------------------------------------------------------
- -------------------------------------9/10-------------------------------------------
- -11---11/13---13\11---9/11---11/13---------11---11/13---13\11-----------------------
- ----0-------0-------0------0-------0----------0-------0-------0---------------------
- ------------------------------------------------------------------------------------
- ------------------------------------------------------------------------------------
PM    .       .       .      .       .          .       .       .
- ------------------------------------------------------------------------------------
- -10---10/12---12\10---9/10---10/12---12/14-10---10/12---12\10-----------------------
- ------------------------------------------------------------------------------------
- ----0-------0-------0------0-------0----------0-------0-------0---------------------
- ------------------------------------------------------------------------------------
- ------------------------------------------------------------------------------------
PM    .       .       .      .       .         .       .       .


[Riff 2, Guitar 1 & 2] - [00:22] - [00:44]
- -----------------------------------------------------------------
- -----------------------------------------------------------------
- -----------------------------------------------------------------
- -----------------------------------------------------------------
- -----------------------------------------------------------------
- -444-444-444-4-444-444-4-444-444-444-444-444-4-444-444-4-444-444-
PM ...............................................................
- -----------------------------------------------------------------
- -----------------------------------------------------------------
- -----------------------------------------------------------------
- -----------------------------------------------------------------
- -----------------------------------------------------------------
- -444-444-444-4-444-444-4-444-444-444-444-444-4-444-444-4-444-444-
PM ...............................................................


- -----------------------------------------------------------------
- -----------------------------------------------------------------
- -------------------------------------------------2-1---2-1-------
- -----------------------------------------------------2-----2-2h4-
- -----------------------------------------------------------------
- -000-000-000-0-000-000-0-000-000-000-000-000-0-0-----------------
PM ...............................................     .     .
- -----------------------------------------------------------------
- -----------------------------------------------------------------
- -------------------------------------------------6-4---6-4-------
- -----------------------------------------------------7-----7-6h7-
- -----------------------------------------------------------------
- -000-000-000-0-000-000-0-000-000-000-000-000-0-0-----------------
PM ...............................................     .     .


- -----------------------------------------------------------------
- -----------------------------------------------------------------
- -----------------------------------------------------------------
- -----------------------------------------------------------------
- -----------------------------------------------------------------
- -444-444-444-4-444-444-4-444-444-444-444-444-4-444-444-4-444-444-
PM ...............................................................
- -----------------------------------------------------------------
- -----------------------------------------------------------------
- -----------------------------------------------------------------
- -----------------------------------------------------------------
- -----------------------------------------------------------------
- -444-444-444-4-444-444-4-444-444-444-444-444-4-444-444-4-444-444-
PM ...............................................................


- -----------------------------------------------------------------
- -----------------------------------------------------------------
- -----------------------------------------------------------------
- -------------------------------------------------4-------2-------
- -------------------------------------------------4-------2-------
- -000-000-000-0-000-000-0-000-000-000-000-000-0-0-4-------2-------
PM ...............................................
- -----------------------------------------------------------------
- -----------------------------------------------------------------
- -----------------------------------------------------------------
- -------------------------------------------------4-------2-------
- -------------------------------------------------4-------2-------
- -000-000-000-0-000-000-0-000-000-000-000-000-0-0-4-------2-------
PM ...............................................


[Riff 3a] - [00:44] - [01:02]
- -------------------------------------------------------------------------
- -------------------------------------------------------------------------
- -------------------------------------------------------------------------
- -0-----------0-----------------------0---0---0---4-----------2-----------
- -0-----------0-----------0-0-0-0-0-0-0---0---0---4-----------2-----------
- -0-----------0-----------0-0-0-0-0-0-0---0---0---4-----------2-----------
PM                         ...........

- -------------------------------------------------------------------------------------------------
- -------------------------------------------------------------------------------------------------
- -------------------------------------------------------------------------------------------------
- -0-----------0-----------------------0---0---0---4---------------4---4---2---------------2---2---
- -0-----------0-----------0-0-0-0-0-0-0---0---0---4---------------4---4---2---------------2---2---
- -0-----------0-----------0-0-0-0-0-0-0---0---0---4---------------4---4---2---------------2---2---
PM                         ...........

- -------------------------------------------------
- -------------------------------------------------
- -------------------------------------------------
- -0-----------------------------------------------
- -0-----------------------0-0-0-0-0-0-2-2-2-2-2-2-
- -0-----------------------0-0-0-0-0-0-2-2-2-2-2-2-
PM                         .......................


[Riff 3b, Guitar 1 & 2] - [00:44] - [01:02]
- -------------------------------------------------------------------------------
- -------------------------------------------17------12-/14----------------------
- -14----------14----------13-13-13-13-13-13-x---13--x---x-----------13----------
- -x-----------x-----------x--x--x--x--x--x--14--x---9--/11----------x-----------
- -12----------12----------11-11-11-11-11-11-----11------------------11----------
- -------------------------------------------------------------------------------
-
- -------------------------------------------------------------------------------
- -------------------------------------------------------------------------------
- -9-----------9-----------9--9--9--9--9--9--9---9---9--11-----------9-----------
- -x-----------x-----------x--x--x--x--x--x--x---x---x--x------------x-----------
- -7-----------7-----------7--7--7--7--7--7--7---7---7--9------------7-----------
- -------------------------------------------------------------------------------

- -------------------------------------------------------------------------------------------------------
- -------------------------------------------17----------14--------------14--14--------------------------
- -14----------14----------13-13-13-13-13-13-x---14--14--x---------------x---x---13--------------13--13--
- -x-----------x-----------x--x--x--x--x--x--14--x---x---11--------------11--11--x---------------x---x---
- -12----------12----------11-11-11-11-11-11-----12--12--------------------------11--------------11--11--
- -------------------------------------------------------------------------------------------------------
-
- -------------------------------------------------------------------------------------------------------
- -------------------------------------------------------------------------------------------------------
- -9-----------9-----------9--9--9--9--9--9--9---9---9--11---------------11--11--9---------------9---9---
- -x-----------x-----------x--x--x--x--x--x--x---x---x--x----------------x---x---x---------------x---x---
- -7-----------7-----------7--7--7--7--7--7--7---7---7--9----------------9---9---7---------------7---7---
- -------------------------------------------------------------------------------------------------------

- -------------------------------------------------------------
- -------------------------------------------------------------
- -14----------------------14-14-14-14-14-14-13-13-13-13-13-13-
- -x-----------------------x--x--x--x--x--x--x--x--x--x--x--x--
- -12----------------------12-12-12-12-12-12-11-11-11-11-11-11-
- -------------------------------------------------------------
-
- -------------------------------------------------------------
- -------------------------------------------------------------
- -9-----------------------14-14-14-14-14-14-13-13-13-13-13-13-
- -x-----------------------x--x--x--x--x--x--x--x--x--x--x--x--
- -7-----------------------12-12-12-12-12-12-11-11-11-11-11-11-
- -------------------------------------------------------------


[Riff 4a] - [01:02] - [01:13]
- -----------------------------------------------------------------
- -----------------------------------------------------------------
- -----------------------------------------------------------------
- -4-----------------------------------------------4-------4-------
- -4-----------------------------------------------4-------4-------
- -4-----------------------------------------------4-------4-------

- -----------------------------------------------------------------
- -----------------------------------------------------------------
- -----------------------------------------------------------------
- -0---------------------------------------------------------------
- -0---------------------------------------------------------------
- -0---------------------------------------------------------------


[Riff 4b, Guitar 1 & 2] - [01:02] - [01:13]
- ------------------------------------------------------------------------------------
- -------------------------------------9/10-------------------------------------------
- -11---11/13---13\11---9/11---11/13---------11---11/13---13\11---9/11---11/13---13\9-
- ------------------------------------------------------------------------------------
- ----9-------9-------9------9-------9----------9-------9-------9------9-------9------
- ------------------------------------------------------------------------------------
PM    .       .       .      .       .          .       .       .      .       .
- ------------------------------------------------------------------------------------
- -10---10/12---12\10---9/10---10/12---12/14-10---10/12---12\10---9/10---10/12---12/9-
- ----11------11------11-----11------11---------11------11------11-----11------11-----
- ------------------------------------------------------------------------------------
- ------------------------------------------------------------------------------------
- ------------------------------------------------------------------------------------
PM    ..      ..      ..     ..      ..         ..      ..      ..     ..      ..


- ---------------------------------------------------------------------------------------------
- -------------------------------------9/10----------------------------------------------------
- -11---11/13---13\11---9/11---11/13---------11---11/13---13\11---13h14(x3)-11h13(x3)-9h11(x2)-
- ----0-------0-------0------0-------0----------0-------0-------0------------------------------
- ---------------------------------------------------------------------------------------------
- ---------------------------------------------------------------------------------------------
PM    .       .       .      .       .          .       .       .
- ---------------------------------------------------------------------------------------------
- -10---10/12---12\10---9/10---10/12---12/14-10---10/12---12\10---12h14(x3)-10h12(x3)-9h10(x2)-
- ---------------------------------------------------------------------------------------------
- ----0-------0-------0------0-------0----------0-------0-------0------------------------------
- ---------------------------------------------------------------------------------------------
- ---------------------------------------------------------------------------------------------
PM    .       .       .      .       .         .       .       .


[Riff 2, Guitar 1 & 2] - [01:13] - [01:35]
[Riff 3a] - [01:35] - [01:53]
[Riff 3b, Guitar 1 & 2] - [01:35] - [01:53]

[Riff 5a] - [01:53] - [02:37] - [x2]
- -----------------------------------------------------------------
- -----------------------------------------------------------------
- -----------------------------------------------------------------
- -4-----4-----4-------4---4-------4-----4-----4-------4---4-------
- -4-----4-----4-------4---4-------4-----4-----4-------4---4-------
- -4-----4-----4-------4---4-------4-----4-----4-------4---4-------

- -----------------------------------------------------------------
- -----------------------------------------------------------------
- -----------------------------------------------------------------
- -2-----2-----2-------2---2-------2-----2-----2-------2---2-------
- -2-----2-----2-------2---2-------2-----2-----2-------2---2-------
- -2-----2-----2-------2---2-------2-----2-----2-------2---2-------

- -----------------------------------------------------------------
- -----------------------------------------------------------------
- -----------------------------------------------------------------
- -0-----0-----0-------0---0-------0-----0-----0-------0---0-------
- -0-----0-----0-------0---0-------0-----0-----0-------0---0-------
- -0-----0-----0-------0---0-------0-----0-----0-------0---0-------

- -----------------------------------------------------------------
- -----------------------------------------------------------------
- -----------------------------------------------------------------
- -4-----4-----4-------4---4-------2-----2-----2-------2---2-------
- -4-----4-----4-------4---4-------2-----2-----2-------2---2-------
- -4-----4-----4-------4---4-------2-----2-----2-------2---2-------


[Riff 5b, Guitar 1 & 2] - [01:53] - [02:15]
- -14----14----16----16----17---------------21----21---17----17---17/19----19/21-
- -17b---17b---19b---19b---20b-----21h22-----------------------------------------
- ---------------------------------------18----18----18---14---14-------16-------
- -------------------------------------------------------------------------------
- -------------------------------------------------------------------------------
- -------------------------------------------------------------------------------

                               T
- -19----17----16----17p16-----12/---p0-------17-16br-17-------17-16br----19----19/21-
- -22b---20b---19b---------17-----------17h19------------17h19---------17----17-------
- ------------------------------------------------------------------------------------
- ------------------------------------------------------------------------------------
- ------------------------------------------------------------------------------------
- ------------------------------------------------------------------------------------


- -17b---17br-19/21-21-21----17/19-17v----------------------------------------------------
- ------------------------15-----------------------------------------------17----15-------
- ----------------------------------------/14\13---------------------13----------------18\
- --------------------------------------------------16----14--/16-------------------------
- ----------------------------------------------------------------------------------------
- ----------------------------------------------------------------------------------------


- ----14-------14-------16-------16-------21----------17-------17-------21-------21-------24-------
- -------------------------------------------------------------------------------------------------
- -14-------14-------16-------16-------18-------16-14-------14-------18-------18-------19-------19-
- -------------------------------------------------------------------------------------------------
- -------------------------------------------------------------------------------------------------
- -------------------------------------------------------------------------------------------------
-
- -------------------------------------------------------------------------------------------------
- ----10-------10-------12-------12-------14----------10-------10-------14-------14-------17-------
- \11-------11-------13-------13-------14-------13-11-------11-------13-------13-------14-------13-
- -------------------------------------------------------------------------------------------------
- -------------------------------------------------------------------------------------------------
- -------------------------------------------------------------------------------------------------


[Riff 5c, Guitar 1 & 2] - [02:15] - [02:37]
- ------------------------------------------------------------------------------------
- -------------------------------------9/10-------------------------------------------
- -11---11/13---13\11---9/11---11/13---------11---11/13---13\11---9/11---11/13---13\9-
- ------------------------------------------------------------------------------------
- ----9-------9-------9------9-------9----------9-------9-------9------9-------9------
- ------------------------------------------------------------------------------------
PM    .       .       .      .       .          .       .       .      .       .
- ------------------------------------------------------------------------------------
- -10---10/12---12\10---9/10---10/12---12/14-10---10/12---12\10---9/10---10/12---12/9-
- ----11------11------11-----11------11---------11------11------11-----11------11-----
- ------------------------------------------------------------------------------------
- ------------------------------------------------------------------------------------
- ------------------------------------------------------------------------------------
PM    ..      ..      ..     ..      ..         ..      ..      ..     ..      ..

- ------------------------------------------------------------------------------------
- -7----7/9-----9\7------------7/9-----9/10--7----7/9-----9\7-----10-9----10-9------9-
- ----------------------9/11-------------------------------------------11------9-11---
- ------------------------------------------------------------------------------------
- ----7-------7-------7------7-------7----------7-------7-------7---------------------
- ------------------------------------------------------------------------------------
PM    .       .       .      .       .          .       .
- -------------------------------------7/9------------------------9--7----9--7------7-
- -10---10/12---12\10---9/10---10/12---------10---10/12---12\10--------10------9-10---
- ------------------------------------------------------------------------------------
- ------------------------------------------------------------------------------------
- ----7-------7-------7------7-------7----------7-------7-------7---------------------
- ------------------------------------------------------------------------------------
PM    .       .       .      .       .          .       .       .


- ------------------------------------------------------------------------------------
- -------------------------------------9/10-------------------------------------------
- -11---11/13---13\11---9/11---11/13---------11---11/13---13\11---9/11---11/13---13\9-
- ----0-------0-------0------0-------0----------0-------0-------0------0-------0------
- ------------------------------------------------------------------------------------
- ------------------------------------------------------------------------------------
PM    .       .       .      .       .          .       .       .      .       .
- ------------------------------------------------------------------------------------
- -10---10/12---12\10---9/10---10/12---12/14-10---10/12---12\10---9/10---10/12---12/9-
- -------------------------------------------------------------------------------------
- ----0-------0-------0------0-------0----------0-------0-------0------0-------0------
- ------------------------------------------------------------------------------------
- ------------------------------------------------------------------------------------
PM    .       .       .      .       .          .       .       .      .       .


- ------------------------------------------------------------------------------------
- -------------------------------------9/10-----------------------10-9----10-9------9-
- -11---11/13---13\11---9/11---11/13---------11---11/13---13\11--------11------9-11---
- ------------------------------------------------------------------------------------
- ----9-------9-------9------9-------9----------7-------7-------7---------------------
- ------------------------------------------------------------------------------------
PM    .       .       .      .       .          .       .       .
- ----------------------------------------------------------------9--7----9--7------7-
- -10---10/12---12\10---9/10---10/12---12/14-10---10/12---12\10--------10------9-10---
- ----11------11------11-----11------11-----------------------------------------------
- ------------------------------------------------------------------------------------
- ----------------------------------------------7-------7-------7---------------------
- ------------------------------------------------------------------------------------
PM    ..      ..      ..     ..      ..         .       .       .


[Riff 6a, Guitar 1 & 2] - [2:37] - [02:44]
- ------------------------------9/12----12/14-------------------------12~---------
- --------------9/10---10/12-----------------/14----12----------------------------
- -11---11/13----------------11------11-------------------14----13----------------
- --------------------------------------------------------------------------------
- ----9-------9------9------------------------------------------------------------
- --------------------------------------------------------------------------------
PM    .       .      .       ..      ..
- ------------------------------9/12----12/14-------------------------------------
- --------------9/10---10/12------------------------------------------------------
- -11---11/13----------------11------11------/14----13----------------------------
- --------------------------------------------------------16----14----14~---------
- ----9-------9------9------------------------------------------------------------
- --------------------------------------------------------------------------------
PM    .       .      .       ..      ..


[Riff 6b] - [02:40] - [02:42]
- -------------------------
- -------------------------
- -------------------------
- -7-----6-----4-----7-----
- -7-----7-----4-----7-----
- -7-----6-----4-----7-----


[Riff 7a] - [02:42] - [
- -------------------------------------------------------------------------
- -------------------------------------------------------------------------
- -------------------------------------------------------------------------
- -0-----------0-----------------------0---0---0---4-----------2-----------
- -0-----------0-----------0-0-0-0-0-0-0---0---0---4-----------2-----------
- -0-----------0-----------0-0-0-0-0-0-0---0---0---4-----------2-----------
PM                         ...........

- -------------------------------------------------------------------------------------------------
- -------------------------------------------------------------------------------------------------
- -------------------------------------------------------------------------------------------------
- -0-----------0-----------------------0---0---0---4---------------4---4---2---------------2---2---
- -0-----------0-----------0-0-0-0-0-0-0---0---0---4---------------4---4---2---------------2---2---
- -0-----------0-----------0-0-0-0-0-0-0---0---0---4---------------4---4---2---------------2---2---
PM                         ...........

- -------------------------------------------------------------------------------------------------
- -------------------------------------------------------------------------------------------------
- -------------------------------------------------------------------------------------------------
- -0-----------------------------------------------0-----------------------------------------------
- -0-----------------------0-0-0-0-0-0-2-2-2-2-2-2-0-----------------------0-0-0-0-0-0-2-2-2-2-2-2-
- -0-----------------------0-0-0-0-0-0-2-2-2-2-2-2-0-----------------------0-0-0-0-0-0-2-2-2-2-2-2-
PM                         .......................                         .......................

- -------------------------------------
- -------------------------------------
- -------------------------------------
- -4-----------------------4-----------
- -4-----------------------4-----------
- -4-----------------------4-----------


[Riff 7b, Guitar 1 & 2] - [02:42]
- -------------------------------------------------------------------------------
- -------------------------------------------17------12-/14----------------------
- -14----------14----------13-13-13-13-13-13-x---13--x---x-----------13----------
- -x-----------x-----------x--x--x--x--x--x--14--x---9--/11----------x-----------
- -12----------12----------11-11-11-11-11-11-----11------------------11----------
- -------------------------------------------------------------------------------
-
- -------------------------------------------------------------------------------
- -------------------------------------------------------------------------------
- -9-----------9-----------9--9--9--9--9--9--9---9---9--11-----------9-----------
- -x-----------x-----------x--x--x--x--x--x--x---x---x--x------------x-----------
- -7-----------7-----------7--7--7--7--7--7--7---7---7--9------------7-----------
- -------------------------------------------------------------------------------

- -------------------------------------------------------------------------------------------------------
- -------------------------------------------17----------14--------------14--14--------------------------
- -14----------14----------13-13-13-13-13-13-x---14--14--x---------------x---x---13--------------13--13--
- -x-----------x-----------x--x--x--x--x--x--14--x---x---11--------------11--11--x---------------x---x---
- -12----------12----------11-11-11-11-11-11-----12--12--------------------------11--------------11--11--
- -------------------------------------------------------------------------------------------------------
-
- -------------------------------------------------------------------------------------------------------
- -------------------------------------------------------------------------------------------------------
- -9-----------9-----------9--9--9--9--9--9--9---9---9--11---------------11--11--9---------------9---9---
- -x-----------x-----------x--x--x--x--x--x--x---x---x--x----------------x---x---x---------------x---x---
- -7-----------7-----------7--7--7--7--7--7--7---7---7--9----------------9---9---7---------------7---7---
- -------------------------------------------------------------------------------------------------------

- -------------------------------------------------------------
- -------------------------------------------------------------
- -14----------------------14-14-14-14-14-14-13-13-13-13-13-13-
- -x-----------------------x--x--x--x--x--x--x--x--x--x--x--x--
- -12----------------------12-12-12-12-12-12-11-11-11-11-11-11-
- -------------------------------------------------------------
-
- -------------------------------------------------------------
- -------------------------------------------------------------
- -9-----------------------14-14-14-14-14-14-13-13-13-13-13-13-
- -x-----------------------x--x--x--x--x--x--x--x--x--x--x--x--
- -7-----------------------12-12-12-12-12-12-11-11-11-11-11-11-
- -------------------------------------------------------------

- -------------------------------------------------------------------------------------------------
- -------------------------------------------------------------------------------------------------
- -14----------------------14-14-14-14-14-14-13-13-13-13-13-13-11----------------------11----------
- -x-----------------------x--x--x--x--x--x--x--x--x--x--x--x--x-----------------------x-----------
- -12----------------------12-12-12-12-12-12-11-11-11-11-11-11-9-----------------------9-----------
- -------------------------------------------------------------------------------------------------
-
- -------------------------------------------------------------------------------------------------
- -------------------------------------------------------------------------------------------------
- -9-----------------------14-14-14-14-14-14-13-13-13-13-13-13-11----------------------11----------
- -x-----------------------x--x--x--x--x--x--x--x--x--x--x--x--x-----------------------x-----------
- -7-----------------------12-12-12-12-12-12-11-11-11-11-11-11-9-----------------------9-----------
- -------------------------------------------------------------------------------------------------

[Symbols]

PM... Palm Mute notes with (...) under them
AP... Alternate Pick notes with (...) under them
h     Hammer On
p     Pull Off
[ ]   Harmonic
/     Slide Up
\     Slide Down
x     Dead Note
b     Bend
hb    Hold Bend
pb    Pre-Bend
r     Release Bend
(x )  Play Notes x amount of times
~     Let Ring
\\\   Pick Slide Down
///   Pick Slide Up
/ 3 \ Notes are triplets (3 notes in the space of two)
w\    Whammy Bar Down
w/    Whammy Bar Up
wh    Whammy Bar Hold
T     Right Hand Tap
L     Left Hand Tap

:)
Suggest correction
Creating personal tab
Creating personal tab
You can edit any tab online and save it as your Personal.

You can edit, replace or remove any tab part or add personal notes – all changes will be seen only by you.

Personal tabs can be accessed anytime from any device, even offline.
Learn more »
Give kudos to tab author, rate the tab!
1 2 3 4 5
comments
print report bad tab
guest
You may want to rate the tab now too:
select rating
Wanna post a correction for this tab? Suggest correction