Oops, an error
Loading. Please wait.

Englisera Bass

2,977 views 3 this week
no commentswrite comment
1 2 3 4 5
3 more votes to show rating
add to favorites
launch autoscroll
font size
0
reset
guitar tuner
×
Best way to learn
"Englisera"
Autoscroll
slow
fast
+/-
esc
set tempo
stop
Author
Difficulty
100% accurate po yan...
enjoy....
CAPITAN_chicko
intro=2x

|---------------4-7-------------------------------------|
|------------5-------------2-5----4--7------------------| 3x
|------2-5-2-----------3-3-----5-5----------------------|
|--3-3--------------------------------------------------|

|--------------------------------------------------|
|--------------------------------------------------|
|-------7---5-----4--------------------------------|
|--------------------------------------------------|

verse and chorus
|---------------4-7----------------------------------|
|------------5-------------2-5----4--7---------------| 3x
|------2-5-2-----------3-3-----5-5-------------------|
|--3-3-----------------------------------------------|

|--------------------------------------------------|
|--------------------------------------------------|
|-------7---5-----4--------------------------------|
|--------------------------------------------------|
Suggest correction
Give kudos to tab author, rate the tab!
1 2 3 4 5
comments
print report bad tab
guest
You may want to rate the tab now too:
select rating
Wanna post a correction for this tab? Suggest correction