Oops, an error
Loading. Please wait.

Englisera Tab

4,144 views 18 this week
no commentswrite comment
1 2 3 4 5
please rate
add to favorites
launch autoscroll
font size
0
reset
how to read this tab
guitar tuner
Autoscroll
slow
fast
+/-
esc
set tempo
stop
Help us to improve Ultimate-Guitar.com Take our survey!
×
Author
Missing Filemon - Englisera
Tab by: Hemmingway Isaac C. Moro

Intro/Verse/Chorus: G-Bm-C-D (then) Em-D-C


Verse (fill-in) palm-mute
--------------------------------------------------------|
--------------------------------------------------------|
--------------------------------------------------------|
-------5-5-5-5-4-4--4------2-2--2-----4-4--4-4-5--------|
-----5---------------2-2-2-------3-3-3------5-----------|
-3-3----------------------------------------------------|


Solo:

--------------------------------------------------------|
-----------------5--6-8-6-8-8/10--8-7-8-7--------7-8-10-|
-----------4-5-7--------------------------7-9--9--------|
-------5-7----------------------------------------------|
---5/7--------------------------------------------------|
-3------------------------------------------------------|


--------------------------------------------------------|
-8-7-8-7-------8-7-8-7------8-7-8/10-8-7-8--------------|
---------7-9-----------7-9------------------------------|
--------------------------------------------------------|
--------------------------------------------------------|
--------------------------------------------------------|

--------------------------------------------------------|
-/12-12-12--10-10-10--8-8-8--7-7-7---8/10-7-8-7---------|
--12-12-12--11-11-11--9-9-9--7-7-7--------------7-9-----|
--------------------------------------------------------|
--------------------------------------------------------|
--------------------------------------------------------|

--------------------------------------------------------|
-8/10-8--7-7h8p7----------------------------------------|
------------------9/11----------------------------------|
--------------------------------------------------------|
--------------------------------------------------------|
--------------------------------------------------------|

Pls rate!!! TNX

my FB: hemmingwayisaacmoro@yahoo.com.ph

Enjoy ^_^
Suggest correction
Give kudos to tab author, rate the tab!
1 2 3 4 5
comments
print report bad tab
guest
You may want to rate the tab now too:
select rating
Please do not post tabs as comments. Select "correction" instead!