Oops, an error
Loading. Please wait.

Inglesera Bass Tab

version 1
version 1

Whole song

655 views 1 this week
no commentswrite comment
1 2 3 4 5
please rate
add to favorites
launch autoscroll
font size
0
reset
guitar tuner
Tab Pro tools
  • play this tab
  • loop segment
  • change instrument
  • show fretboard
  • metronome
Autoscroll
slow
fast
+/-
esc
set tempo
stop
Contributor
Inglesera
gitugtog sa: Missing Filemon
gitype ni: jasper

Intro:
G|-------------------------------------------------------------------------|
D|---------------------4-7-----6-9---------------------4-7-----6-9---------|
A|-----4-7-----4-7-5-5-----7-7---------4-7-----4-7-5-5-----7-7-------------|
E|-5-5-----5-5---------------------5-5-----5-5-----------------------------|

Verse,Chorus and Bridge:
G|-------------------------------------------------------------------------|
D|---------------------4-7-----6-9---------------------4-7-----6-9---------|
A|-----4-7-----4-7-5-5-----7-7---------4-7-----4-7-5-5-----7-7-------------|
E|-5-5-----5-5---------------------5-5-----5-5-----------------------------|

G|-------------------------------------------------------------------------|
D|---------------------4-7-----6-9-----------------------------------------|
A|-----4-7-----4-7-5-5-----7-7------------5--------------------------------|
E|-5-5-----5-5----------------------2--0-----------------------------------|

paminawi nlng ang kanta tpos ihapa kng kpila dpt ni xa utruhon s mga lahi2 n verse sa chorus ug sa bridge

comments
We did not receive enough feedback on this tab! Please rate:
print report bad tab
1 2 3 4 5
I want to post or [tab]
guest
You may want to rate the tab now too:
select rating
Please do not post tabs as comments. Select "correction" instead!