Oops, an error
Loading. Please wait.

Inglesera Bass

version 2
version 2

Whole song

381 views 1 this week
no commentswrite comment
1 2 3 4 5
3 more votes to show rating
add to favorites
×
Save as Personal and add changes to this tab that will be seen only by you. Learn more ›
launch autoscroll
font size
0
reset
guitar tuner
Autoscroll
slow
fast
+/-
esc
set tempo
stop
Author
Difficulty
novice
Intro:
G|-----------------4---------------------------------|
D|---------------4---------2-5-------4-7-------------|
A|-----2-5---2-2-------3-3-------5-5-----------------|
E|-3-3-----------------------------------------------|
Verse:
G|-----------------4---------------------------------|
D|---------------4---------2-5-------4-7-------------|
A|-----2-5---2-2-------3-3-------5-5-----------------|
E|-3-3-----------------------------------------------|
  Aduna ko'y nabantayan..Nausab na ang akong sinultian..
G|-----------------------|
D|-----------------------|
A|-7~---5~---3~----------|
E|-----------------------|
  Sukad nga nakaila tika..
G|-----------------4---------------------------------|
D|---------------4---------2-5-------4-7-------------|
A|-----2-5---2-2-------3-3-------5-5-----------------|
E|-3-3-----------------------------------------------|
  Gi-ingnan ko sa imong friends nga you find kuno badoy..
G|-----------------------|
D|-----------------------|
A|-7~---5~---3~----------|
E|-----------------------|
  Pulong sama sa gugma..So I
Chorus:
G|-----------------4---------------------------------|
D|---------------4---------2-5-------4-7-------------|
A|-----2-5---2-2-------3-3-------5-5-----------------|
E|-3-3-----------------------------------------------|
  Say I love you is it okey with you? Bahala nagmakahilak...

basta kahibaw namo mga bisaya asa dapit ang gamiton na part
kay nakadungog naman jud mo sa kanta..wukie?

add lng ako ninyo sa friendster..
f0r3s4k3n@yahoo.com.ph
THANKS!!

Suggest correction
Give kudos to tab author, rate the tab!
1 2 3 4 5
comments
print report bad tab
guest
You may want to rate the tab now too:
select rating
Wanna post a correction for this tab? Suggest correction