Oops, an error
Loading. Please wait.

Inglesera Bass Tab

version 3
version 3

Whole song

323 views 1 this week
no commentswrite comment
1 2 3 4 5
3 more votes to show rating
add to favorites
launch autoscroll
font size
0
reset
guitar tuner
Autoscroll
slow
fast
+/-
esc
set tempo
stop
Help us to improve Ultimate-Guitar.com Take our survey!
×
Author
Difficulty
novice
-------------------------------------------------------------------------------
			     ENGLISERA - Missing Felimon
-------------------------------------------------------------------------------

Tabbed By :wolvzzz
e-mail:wolvzzz_777@yahoo.com

Tuning:standard>E A D G B e

INTRO:
       G           Bm          C           D
G|-----------|-----------|-----------|-----------|
D|-----------|------4-0--|------2-4--|------4-6--|
A|------2-4--|--2-2------|--3-3------|--5-5------| 3x
E|--3-3------|-----------|-----------|-----------|

VERSE1:
       G           Bm          C           D
G|-----------|-----------|-----------|-----------|
D|-----------|------4-0--|------2-4--|------4-6--|
A|------2-4--|--2-2------|--3-3------|--5-5------| 3x
E|--3-3------|-----------|-----------|-----------|
Aduna koy nabantayan,nausab na ang akong sinultian,may sagol nang inegles
like 'whatever' and 'well'...

      Em          D          C
G|----------|----------|----------|
D|----------|----------|----------|
A|----7-----|----5-----|----3-----|
E|----------|----------|----------|
Sukad nga nakaila tika....

REFRAIN1:
      G           Bm          C           D
G|-----------|-----------|-----------|-----------|
D|-----------|------4-0--|------2-4--|------4-6--|
A|------2-4--|--2-2------|--3-3------|--5-5------| 2x
E|--3-3------|-----------|-----------|-----------|
Giingnan ko sa imong friends,nga you find kuno baduy,ang bisayang pinulongan,
manlimbawot imong balhibo,kung makadungog nag...
      Em          D          C
G|----------|----------|----------|
D|----------|----------|----------|
A|----7-----|----5-----|----3-----|
E|----------|----------|----------|
Pulong sama sa gugma.....

CHORUS1:
      G           Bm          C           D
G|-----------|-----------|-----------|-----------|
D|-----------|------4-0--|------2-4--|------4-6--|
A|------2-4--|--2-2------|--3-3------|--5-5------| 3x
E|--3-3------|-----------|-----------|-----------|
So I say i love you,Is it okey with you,Bahala nag makahilak
Ang lolo kong magbabalak,I'll tell him 'well my lolo I'm in love not like you..
      Em          D          C
G|----------|----------|----------|
D|----------|----------|----------|
A|----7-----|----5-----|----3-----|
E|----------|----------|----------|
I'm not too old to learn an english word or two...

(repeat intro)

VERSE2:
      G           Bm          C           D
G|-----------|-----------|-----------|-----------|
D|-----------|------4-0--|------2-4--|------4-6--|
A|------2-4--|--2-2------|--3-3------|--5-5------| 3x
E|--3-3------|-----------|-----------|-----------|
Nagkuyog ta sa sinehan,gikataw-an mo ang trailer ni Piolo ug judy ann
way laing naingon kundi 'whatever' and 'well'...
      Em          D          C
G|----------|----------|----------|
D|----------|----------|----------|
A|----7-----|----5-----|----3-----|
E|----------|----------|----------|
Dayong gawas sa pultahan...

REFRAIN2:
      G           Bm          C           D
G|-----------|-----------|-----------|-----------|
D|-----------|------4-0--|------2-4--|------4-6--|
A|------2-4--|--2-2------|--3-3------|--5-5------| 3x
E|--3-3------|-----------|-----------|-----------|
Giingnan ko sa imong friends,nga you find kuno baduy,mga pelikulang pinoy
bahala nag luod basta gikan sa hollywood
     Em          D          C
G|----------|----------|----------|
D|----------|----------|----------|
A|----7-----|----5-----|----3-----|
E|----------|----------|----------|
Always makes you feel so good
repeat CHORUS1:

then bass guitar off

BRIDGE:
Unya kalit kang nawala
Wa ka nagpahibalo
Niining bisdak nga na-in love kanimo
I thought kitang duha together forever...
     Em          D          C
G|----------|----------|----------|
D|----------|----------|----------|
A|----7-----|----5-----|----3-----|
E|----------|----------|----------|
Ako imo diayng gipasakitan....

REFRAIN3:
     G           Bm          C           D
G|-----------|-----------|-----------|-----------|
D|-----------|------4-0--|------2-4--|------4-6--|
A|------2-4--|--2-2------|--3-3------|--5-5------| 3x
E|--3-3------|-----------|-----------|-----------|
Giingnan ko sa imong friends,nga nikuyog ka kuno sa imong ka-textmate na kano
nanlimbawot akong balahibo sa nasayran ko nga...
     Em          D          C
G|----------|----------|----------|
D|----------|----------|----------|
A|----7-----|----5-----|----3-----|
E|----------|----------|----------|
Ang kano otsenta na...

CHORUS2:
     G           Bm          C           D
G|-----------|-----------|-----------|-----------|
D|-----------|------4-0--|------2-4--|------4-6--|
A|------2-4--|--2-2------|--3-3------|--5-5------| 3x
E|--3-3------|-----------|-----------|-----------|
Still I say I love you though youre hurting me so,Bahala nag makahilak ang lolo kung 
tell him well my lolo i'm your stupid apo
     Em          D          C
G|----------|----------|----------|
D|----------|----------|----------|
A|----7-----|----5-----|----3-----|
E|----------|----------|----------|
Naminaw lang unta ako sa tambag mo...
     Em          D          C
G|----------|----------|----------|
D|----------|----------|----------|
A|----7-----|----5-----|----3-----|
E|----------|----------|----------|
Now I'm too hurt to learn an english word or two....

nagustohan nyo ba?txt me @ 09204089850
Suggest correction
Give kudos to tab author, rate the tab!
1 2 3 4 5
comments
print report bad tab
guest
You may want to rate the tab now too:
select rating
Wanna post a correction for this tab? Suggest correction