Oops, an error
Loading. Please wait.

Langit Tab

1,208 views 9 this week
no commentswrite comment
1 2 3 4 5
please rate
add to favorites
launch autoscroll
font size
0
reset
how to read this tab
guitar tuner
Tab Pro tools
  • play this tab
  • loop segment
  • change instrument
  • show fretboard
  • metronome
Autoscroll
slow
fast
+/-
esc
set tempo
stop
Contributor
Title: Langit
Band: Missing Filemon
Tuning: Standard
-----------------------------------------
Tabbed by: Harrison Tiu
School: HRSP

this bisrock song reaLly rax! [sa acoustic ko nag cepra ani]
-----------------------------------------

Intro:
Lead Guitar:
e|-----------------------------------------------|
B|-1/3--1--0--1--1/3--1--0--1--1/3--1--0--1--1/3~|
G|-----------------------------------------------|
D|-----------------------------------------------|
A|-----------------------------------------------|
E|-----------------------------------------------|
w/ this chords:
[ G D Em C D ]

Verse: [ Kamo na bahala tyming tyming, kapoi suwat lyrics oi.. ehehe ]

G - D - Em - Bm
C - G - D

G - D - Em - Bm
C - G - D

Chorus:

C - G
C - G - D

Verse2:

G - D - Em - Bm
C - G - D

G - D - Em - Bm
C - G - D

Chorus--

Solo Guitar:
Lead Guitar:
e|----------3/5\3---5/7-7-5~--5------------5-------|
B|-------1/3\1------------------7h5-5-5/7----7-5---|
G|----1/3\1----------------------------------------|
D|-1/3\1-------------------------------------------|
A|-------------------------------------------------|
E|-------------------------------------------------|

e|--5h3-----------5------5-------------------------|
B|------5h5--5/7-----5/7---5/7--5~-----------------|
G|-------------------------------------------------|
D|-------------------------------------------------|
A|-------------------------------------------------|
E|-------------------------------------------------|

(paspas ni, mga 10tymz guruh balik2x)
e|----------------------------------------------------|
B|--8h8-7----7--8h7---7--8h7---7---8h7----7--8h7---7--|
G|--------7---------7--------7---------7---------7----|
D|----------------------------------------------------|
A|----------------------------------------------------|
E|----------------------------------------------------|

(den e sumpay dayun ni.. [ below ] )
e|-----------------------------------------------|
B|---7-7-7-7-8-8-8-8-9~--------------------------|
G|-----------------------------------------------|
D|-----------------------------------------------|
A|-----------------------------------------------|
E|-----------------------------------------------|

(Nya kani siya nga  lead, dungan ni a2ng knta,nga hinay.paminaw lang sa tyming.
bsta human ni cya sa solo guitar.)may delay ni,bantay bantay lng
e|--------------------------------11/12~---12/10------|
B|---8--10---12~---12\10--8~---8------------------12~-|
G|----------------------------------------------------|
D|----------------------------------------------------|
A|----------------------------------------------------|
E|----------------------------------------------------|

(continue ani.)
e|------------------------|
B|-12/13-12\10-8~---------|
G|------------------------|
D|------------------------|
A|------------------------|
E|------------------------|
Verse3:

G - D - Em - Bm

Chorus--~

Ending Solo:
e|-----------------------------------------------|
B|-1/3--1-0-1--1/3-1-0-1---1/3-1-0-1--1/3~-------|
G|-----------------------0-----------------------|
D|-----------------------------------------------|
A|-----------------------------------------------|
E|-----------------------------------------------|

Finale Chord - G

mana.... paki rate. dli kaayu ko sure.. hehe.. pero paksit sad..
YM-llord_hharison
f-ster : trichinella@operamail.com
comments
We did not receive enough feedback on this tab! Please rate:
print report bad tab
1 2 3 4 5
I want to post or [tab]
guest
You may want to rate the tab now too:
select rating
Please do not post tabs as comments. Select "correction" instead!