Oops, an error
Loading. Please wait.

Prinsipal Tab

version 1
version 1

Solo

Whole song

2,586 views 3 this week
no commentswrite comment
1 2 3 4 5
3 more votes to show rating
add to favorites
launch autoscroll
font size
0
reset
how to read this tab
guitar tuner
Autoscroll
slow
fast
+/-
esc
set tempo
stop
Help us to improve Ultimate-Guitar.com Take our survey!
×
Author
Difficulty
novice
-------------------------------------------------------------------------------
                             PRINSIPAL - Missing Felimon
-------------------------------------------------------------------------------
Tabbed by:wolvzzz
Email:wolvzzz_777@yahoo.com

Tuning:standard>E A D G B e

itong tab na ito ay 100% kuhang-kuha.....

just listen to the song at makukuha nyo ito...promise!!!

here's the solo


e|-------------------14-12-11-11/12-11-9--------12-11-9-11-9-7----------------------------|
B|--9-10-10/12--9-12----------------------10-12----------------9-----------12-10----------|
G|--------------------------------------------------------------9-9-9-9/11------11-9-8----|
D|----------------------------------------------------------------------------------------|
A|----------------------------------------------------------------------------------------|
E|----------------------------------------------------------------------------------------|

e|------------------14-12-14-16-12--------12-11-9-11-9-7----------------------------------|
B|--9-10-10/12-9-12-----------------10-12----------------9------------12-10-12-12/14-12---|
G|---------------------------------------------------------9-9-9-9/11---------------------|
D|----------------------------------------------------------------------------------------|
A|----------------------------------------------------------------------------------------|
E|----------------------------------------------------------------------------------------|

/-slide up

Suggest correction
Give kudos to tab author, rate the tab!
1 2 3 4 5
comments
print report bad tab
guest
You may want to rate the tab now too:
select rating
Wanna post a correction for this tab? Suggest correction