Oops, an error
Loading. Please wait.

Prinsipal Tab

version 1
version 1

Whole song

3,037 views 9 this week
1 commentread comment
1 2 3 4 5
please rate
add to favorites
launch autoscroll
font size
0
reset
how to read this tab
guitar tuner
Autoscroll
slow
fast
+/-
esc
set tempo
stop
Help us to improve Ultimate-Guitar.com Take our survey!
×
Author
Difficulty
novice
Intro:
E|-----------------------------------------|
B|-----------------------------------------|
G|-----------------------------------------|
D|-4-4-4-6-6-6-7-7-7-9-9-9--4-4-4-6-7-9-9--|
A|-4-4-4-6-6-6-7-7-7-9-9-9--4-4-4-6-7-9-9--|
E|-2-2-2-4-4-4-5-5-5-7-7-7--2-2-2-4-5-7-7--|

Verse:
kAyO lAnG pOh aNg bAhAlA sAh stRuMmiNg..
E|--------------|
B|--------------|
G|-9>-6>----4>--|
D|-9>-6>-4>-4>--|
A|-7>-4>-4>-2>--|
E|-------2>-----|

Refrain:
E|------------------------------------------------------------------------|
B|------------------------------------------------------------------------|
G|-------9----------------------------------------------------------------|
D|-7-----9-8x-7-------4-4-4-6-6-6-7-7-7-9-9-9--4-4-4-6-7-9-9--------------|
A|-7-15x-7----7-15x---4-4-4-6-6-6-7-7-7-9-9-9--4-4-4-6-7-9-9--------------|
E|-5----------5-------2-2-2-4-4-4-5-5-5-7-7-7--2-2-2-4-5-7-7--------------|

Bridge:
E|------------------------------------------------------------------------|
B|------------------------------------------------------------------------|
G|-6>-5>-4>-3>------------------------------------------------------------|
D|-6>-5>-4>-3>------------------------------------------------------------|
A|-4>-3>-2>-1>------------------------------------------------------------|
E|------------------------------------------------------------------------|
Suggest correction
Give kudos to tab author, rate the tab!
1 2 3 4 5
comments
print report bad tab
1 comment total.
0 reply
perfectionist 10 wrote on October 22 2006, 01:09 am

idol!!!!!kuha nmo dong solo ta nindot

guest
You may want to rate the tab now too:
select rating
Please do not post tabs as comments. Select "correction" instead!