Oops, an error
Loading. Please wait.

Prinsipal Chords

version 2
version 2

Whole song

7,093 views 3 this week
no commentswrite comment
1 2 3 4 5
please rate
add to favorites
launch autoscroll
font size
0
reset
transpose
0
reset
display chords
guitar tuner
Autoscroll
slow
fast
+/-
esc
set tempo
stop
Help us to improve Ultimate-Guitar.com Take our survey!
×
Difficulty
novice
Prinsipal Chords by Missing Filemon

post by: Rowell Oghayon
CIT Hihg School

Do Power Chords only
para bug-at ang tono
Standard tune nhi!!!
para ra nhi sa rythm......

Prinsipal
by Missing Filemon

Intro: F#-G#-A-B F#|G#|A|B

Verse 1:
         E       C#            F#
Prinsipal gusto ko nga mag-artista
      B             E
Gikapuy na ko'g eskwela
        C#            F#   B
way allowance, hagu pa

         E       C#            F#
Manimpad kining pobre sa Maynila
        B            E
Magpa-cute sa taga-Viva
       C#           F#    B
basig ma discover pa

Refrain 1:
      A                   E
Anad na ako mag-inartista

 A                  F#       G#
Sa balay magpakaaron-ingnon nga busog
       A          B F#|G#|A|B
bisag wa nay kusog

Verse 2: (do verse 1 chords)
Prinsipal pwede kong magkontrabida
Kining dagway kog postura
angayang mangulata

Ayaw lang, ayaw'g saba'ng mama'g papa
Ako s'la nga isorpresa
musikat ko'g aduna

Refrain 2: (do refrain 1 chords)
Anad na ako mag-inartista
Sa balay magpakaaron-ingnon nga tigas
bisag wa nay bugas

Bridge:
C#       C          B                 Bb
Mga pangandoy nga nagpatagad sa ulong ko nga labad
E        F#        G          A
Dili ma himo ta kung di makalupad
          F#       G#       A           B F#|G#|A|B
aron-ingnon nga tigas bisag wa nay bugas

Adlib (do verse 1 chords)

Refrain 3:
      A                 E
Anad na ako mag-inartista
      A                   F#         G#
sa balay magpaka-aron-ingnon nga tigas
      A          B
bisag wa nay bugas
(Do F#-G#-A-B on each line)
ingnon nga busog bisag wa nay kusog
ingnon nga maro bisag ma'y' pang iro
ingnon nga bagsik bisag di' katuhik
la lala lala lalala lalala
   F#     G#     A      B       E
la lala lala lalala lalala lalala


kanang mga d kasabot
ayaw nlng pagtuga-tuga
para kasabot mu.....
joke3x
heheheheehhee
first pani nako


Intro: Katung Kords sa Intro
    (tabs ni sa mga verse)
E|----11--9--7-----------------------------------------12--11--9--7-------|
B|-9------------10--9-10-9-7-9-7-(9-10)-(10-12)---12---12-----------------|
G|-9----------------------------------------------------------------------|
D|-9----------------------------------------------------------------------|
A|------------------------------------------------------------------------|
E|------------------------------------------------------------------------|


E|-----------------------------------------12-12-12-12---9-9-9-9----------|
B|-10--9-10-9-7-9-7-(9-10)-(10-12)---12---12-12-12-12---9-9-9-9-----------|
G|------------------------------------------------------------------------|
D|------------------------------------------------------------------------|
A|------------------------------------------------------------------------|
E|------------------------------------------------------------------------|


E|---9--9--9--9----11-11-11-11----12-12-12-12-----------------------------|
B|-10-10-10-10----12-12-12-12----12-12-12-12------------------------------|
G|------------------------------------------------------------------------|
D|------------------------------------------------------------------------|
A|------------------------------------------------------------------------|
E|------------------------------------------------------------------------|

E|--9-9-9-9---9--9--9--9-----11-11-11-11----------------------------------|
B|-9-9-9-9--10-10-10-10-----12-12-12-12-----------------------------------|
G|------------------------------------------------------------------------|
D|------------------------------------------------------------------------|
A|------------------------------------------------------------------------|
E|------------------------------------------------------------------------|


Refrain:
    i octave lng ang E inig E na!!!
    para dungog kau ang E na note
    suhira lng ang cords sa taas


Ad lib

E|--------------------14-12-11-12-9-----12-11-9-11-9-7------------7-5-----|
B|-9-10-(10-12)--9-12----------------9-12---------------9-5---2-5----5-2-0|
G|------------------------------------------------------------------------|
D|------------------------------------------------------------------------|
A|------------------------------------------------------------------------|
E|------------------------------------------------------------------------|

E|--------------------14-12-14-(14-16)-12-----12-11-9-11-9-7--------------|
B|-9-10-(10-12)--9-12---------------------9-12---------------9-5---2-5----|
G|------------------------------------------------------------------------|
D|------------------------------------------------------------------------|
A|------------------------------------------------------------------------|
E|------------------------------------------------------------------------|

E|-7-5-7-(7-9)------------------------------------------------------------|
B|------------------------------------------------------------------------|
G|------------------------------------------------------------------------|
D|------------------------------------------------------------------------|
A|------------------------------------------------------------------------|
E|------------------------------------------------------------------------|


   mao ra ning nahibawan nko ining kantaha.....
   kung la mo kasabot sa tabs k ra kay
   first pa nko nig butang ug tabs maong pasenshay lng
   kay la man guy nagtudlu nku unsaun pagbasa ug pagbutag tabs!!!
Suggest correction
What's this?
You can suggest a correction to this tab. Community and Mods will review your correction and vote to approve or reject it.
comments
We did not receive enough feedback on this tab! Please rate:
print report bad tab
1 2 3 4 5
guest
You may want to rate the tab now too:
select rating
Please do not post tabs as comments. Select "correction" instead!