Oops, an error
Loading. Please wait.

Prinsipal Tab

version 2
version 2

Solo

Whole song

1,055 views 6 this week
no commentswrite comment
1 2 3 4 5
please rate
add to favorites
launch autoscroll
font size
0
reset
how to read this tab
guitar tuner
Tab Pro tools
  • play this tab
  • loop segment
  • change instrument
  • show fretboard
  • metronome
Autoscroll
slow
fast
+/-
esc
set tempo
stop
Contributor
Difficulty
intermediate
Artist;Missing Filemon,
Tab by:vhenz_Bohol

Intro:
E|---------------------------|
B|---------------------------|
G|---------------------------|
D|-4-4-4-6-6-6-7-7-7-9-9-9---|
A|-4-4-4-6-6-6-7-7-7-9-9-9---|
E|-2-2-2-4-4-4-5-5-5-7-7-7---|

E|---------------------|
B|---------------------|
G|---------------------|
D|---4-4-4-6-7-9-9-----|
A|---4-4-4-6-7-9-9-----|
E|---2-2-2-4-5-7-7-----|


Verse:
kamo ra bahala ana sayon raman na.
E|-----------------------------------------|
B|-----------------------------------------|
G|----9>--------6>-----------4>------------|
D|----9>--------6>-----------4>--------4>--|
A|----7>--------4>-----------4>--------2>--|
E|-------------------------------------2>--|
Prinsipal gusto ko nga mag-artista
Gikapuy na ko'g eskwela
way allowance, hagu pa

Manimpad kining pobre sa Maynila
Magpa-cute sa taga-Viva
basig ma discover pa

Refrain 1:
E|---------------------------------------|
B|---------------------------------------|
G|------------9--------------------------|
D|---7--------9-(8x)-------7-------------|
A|---7-(15x---7------------7-(15x)-------|
E|---5---------------------5-------------|
Anad na...  mag-inartista
     Sa balay magpakaaron
E|----------------------------------------------------------------|
B|----------------------------------------------------------------|
G|----------------------------------------------------------------|
D|--4-4-4-6-6-6-7-7-7-9-9-9------------4-4-4-6-7-9-9--------------|
A|--4-4-4-6-6-6-7-7-7-9-9-9------------4-4-4-6-7-9-9--------------|
E|--2-2-2-4-4-4-5-5-5-7-7-7------------2-2-2-4-5-7-7--------------|
   -ingnon nga busogbisag wa nay kusog

Verse 2:
E|-----------------------------------------|
B|-----------------------------------------|
G|----9>--------6>-----------4>------------|
D|----9>--------6>-----------4>--------4>--|
A|----7>--------4>-----------4>--------2>--|
E|-------------------------------------2>--|
Prinsipal pwede kong magkontrabida
Kining dagway kog postura
angayang mangulata

Ayaw lang, ayaw'g saba'ng mama'g papa
Ako s'la nga isorpresa
musikat ko'g aduna

Refrain 2: (do refrain 1 chords)
E|------------------------------------------------|
B|------------------------------------------------|
G|--------------9---------------------------------|
D|----7---------9-(8x)--------7-------------------|
A|----7-(15x)---7-------------7-(15x)-------------|
E|----5-----------------------5-------------------|
Anad na....    mag-inartista
     Sa balay  magpakaaron
E|---------------------------------------------------------|
B|---------------------------------------------------------|
G|---------------------------------------------------------|
D|----4-4-4-6-6-6-7-7-7-9-9-9---------4-4-4-6-7-9-9--------|
A|----4-4-4-6-6-6-7-7-7-9-9-9---------4-4-4-6-7-9-9--------|
E|----2-2-2-4-4-4-5-5-5-7-7-7---------2-2-2-4-5-7-7--------|
 -ingnon nga tigas bisag wa nay bugas

Bridge;
Kayo rin bahala dito
E|------------------------------------------------------------------------|
B|------------------------------------------------------------------------|
G|-6>-----5>----4>----3>--------------------------------------------------|
D|-6>-----5>----4>----3>--------------------------------------------------|
A|-4>-----3>----2>----1>--------------------------------------------------|
E|------------------------------------------------------------------------|
Mga pangandoy nga nagpatagad sa ulong ko nga labad
Dili ma himo ta kung di makalupad
aron-ingnon nga tigas bisag wa nay bugas

Adlib (do verse 1 chords)
e|-------------------14-12-11-11/12-11-9--------12-11-9-11-9-7----------------------------|
B|--9-10-10/12--9-12----------------------10-12----------------9-----------12-10----------|
G|--------------------------------------------------------------9-9-9-9/11------11-9-8----|
D|----------------------------------------------------------------------------------------|
A|----------------------------------------------------------------------------------------|
E|----------------------------------------------------------------------------------------|

e|------------------14-12-14-16-12--------12-11-9-11-9-7----------------------------------|
B|--9-10-10/12-9-12-----------------10-12----------------9------------12-10-12-12/14-12---|
G|---------------------------------------------------------9-9-9-9/11---------------------|
D|----------------------------------------------------------------------------------------|
A|----------------------------------------------------------------------------------------|
E|----------------------------------------------------------------------------------------|


Refrain 3:
E|------------------------------------------------|
B|------------------------------------------------|
G|--------------9---------------------------------|
D|----7---------9-(8x)--------7-------------------|
A|----7-(15x)---7-------------7-(15x)-------------|
E|----5-----------------------5-------------------|
Anad na......  mag-inartista
     sa balay  magpaka-aron

E|------------------------------------|
B|------------------------------------|
G|------------------------------------|
D|----4-4-4-6-6-6-7-7-7-9-9-9---------|
A|----4-4-4-6-6-6-7-7-7-9-9-9---------|
E|----2-2-2-4-4-4-5-5-5-7-7-7---------|
  -ingnon nga tigas bisag wa nay bugas

E|------------------------------------------|
B|------------------------------------------|
G|------------------------------------------|
D|----4-4-4-6-6-6-7-7-7-9-9-9---------------|
A|----4-4-4-6-6-6-7-7-7-9-9-9---------------|
E|----2-2-2-4-4-4-5-5-5-7-7-7---------------|
  ingnon nga busog bisag wa nay kusog
  ingnon nga maro bisag ma'y' pang iro
  ingnon nga bagsik bisag di' katuhik
  la lala lala lalala lalala
   Am     Bm     C      D       G
la lala lala lalala lalala lalala

End.

--------------------------------------------------------I
Hello nga pala sa akong mga friend sa bohol             I
sila c marlon & christer...Rock on mga pre..            I
                                                        I
hello din sa akong gf nga maayo kayo mo guitar c        I
Rebelyn Tabat....                                       I
                                                                                         
  -------------------------------------------------------I
comments
We did not receive enough feedback on this tab! Please rate:
print report bad tab
1 2 3 4 5
I want to post or [tab]
guest
You may want to rate the tab now too:
select rating
Please do not post tabs as comments. Select "correction" instead!