Oops, an error
Loading. Please wait.

Sine Sine Tab

version 1
version 1

Interactive

3,506 views 1 this week
no commentswrite comment
1 2 3 4 5
please rate
add to favorites
launch autoscroll
font size
0
reset
how to read this tab
guitar tuner
Tab Pro tools
  • play this tab
  • loop segment
  • change instrument
  • show fretboard
  • metronome
×
Best way to learn
"Sine Sine"
Autoscroll
slow
fast
+/-
esc
set tempo
stop
Tabbed by : Harrison Tiu

Band : Missing Filemon
Title : Sine Sine

sayun ra kaau, pede ra piyungan, paminaw lang mo sa tukar pra mka tyming mo.

Solo:
e|------------------------------------------------------------------|
B|---9b--8b--8--9--11--9--8--9b-------------------------------------|
G|------------------------------------------------------------------|
D|------------------------------------------------------------------|
A|------------------------------------------------------------------|
E|------------------------------------------------------------------|

e|------------------------------------------------------------------|
B|---9/7b--7b--6--9--7--6b------------------------------------------|
G|------------------------------------------------------------------|
D|------------------------------------------------------------------|
A|------------------------------------------------------------------|
E|------------------------------------------------------------------|

e|-----------7/9--7--5-------7/9--7--5b--5/9--9---12b--12------12---|
B|-----5-----------------5-----------------------------------10--12b|
G|---6---6-------------6---6----------------------------------------|
D|------------------------------------------------------------------|
A|------------------------------------------------------------------|
E|------------------------------------------------------------------|

~~~
mau ra toh. =P "llord_hharison@yahoo.com" 
                                        
comments
We did not receive enough feedback on this tab! Please rate:
print report bad tab
1 2 3 4 5
I want to post or [tab]
guest
You may want to rate the tab now too:
select rating
Please do not post tabs as comments. Select "correction" instead!