Oops, an error
Loading. Please wait.

Casey Jones Tab

version 1
version 1

Whole song

Interactive

3,603 views 3 this week
no commentswrite comment
1 2 3 4 5
please rate
add to favorites
launch autoscroll
font size
0
reset
how to read this tab
guitar tuner
Tab Pro tools
  • play this tab
  • loop segment
  • change instrument
  • show fretboard
  • metronome
×
Best way to learn
"Casey Jones"
Autoscroll
slow
fast
+/-
esc
set tempo
stop
Contributor
Tabbers playing skills
advanced
----------------------------------------------------------------------------
                   Casey Jones - Mississippi John Hurt
----------------------------------------------------------------------------

Tabbed by: Dave S. 
Email: prime-prine@hotmail.com

Tuning: Standard



E||--3---------------0--3--|---------------3-------|--0---------------0--3--|
B||---------------3--------|-----------------------|---------------3--------|
G||------------------------|-----------------------|------------------------|
D||-------0----------0-----|-------0----------0----|-------2----------2-----|
A||------------------------|-----------------------|--3---------3-----------|
E||--3---------3-----------|--3---------3----------|------------------------|

     
----------------------|------------------0--3--|----------------------|
----------------------|---------------3--------|----------------------|
----------------------|------------------------|----------------------|
-------0---------0----|-------0----------0-----|-------0---------0----|
----------------------|------------------------|------------2---------|
--3---------3---------|--3---------3-----------|--3-------------------|

   
-----5-----------2--------|----------------------|--3---------------0--3--|
-----------2-----------3--|----------------------|---------------3--------|
--------------------------|----------------------|------------------------|
--------2-----------2-----|-------0---------0----|-------0----------0-----|
--0-----------0-----------|--0---------0---------|------------------------|
--------------------------|----------------------|--3---------3-----------|

     
-----------------------|--0---------------0--3--|----------------------|
-----------------------|---------------3--------|----------------------|
---------------0-------|------------------------|----------------------|
-------0----------0----|-------2----------2-----|-------0---------0----|
-----------------------|--3---------3-----------|------------2---------|
--3---------3----------|------------------------|--3-------------------|

  
------------------------|-----3-----0--------------|--0---------------------|
-----0-----0------------|-----------------3-----3--|---------------0--------|
--3---------------------|--------------------------|------------3--------0--|
--------0----------0----|--------0-----------0-----|-------0----------0-----|
------------------------|--------------------------|------------------------|
--3-----------3---------|--3-----------3-----------|--3---------3-----------|

  
-----3--------3--------3--|----------------------|--3---------------0--3--|
-----------0--------------|----------------------|---------------3--------|
-----------------0--------|----------------------|------------------------|
--------0-----------2-----|-------0---------0----|-------0----------0-----|
--------------------------|----------------------|------------------------|
--3-----------3-----------|--3---------3---------|--3---------3-----------|

    
---------------3-------|--0---------------0--3--|----------------------|
-----------------------|---------------3--------|----------------------|
-----------------------|------------------------|----------------------|
-------0----------0----|-------2----------2-----|-------0---------0----|
-----------------------|--3---------3-----------|----------------------|
--3---------3----------|------------------------|--3---------3---------|


------------------0--3--|----------------------|-----5-----------2--------|
---------------3--------|----------------------|-----------2-----------3--|
------------------------|----------------------|--------------------------|
-------0----------0-----|-------0---------0----|--------2-----------2-----|
------------------------|------------2---------|--0-----------0-----------|
--3---------3-----------|--3-------------------|--------------------------|

    
----------------------|--3---------------0--3--|-----------------------|
----------------------|---------------3--------|-----------------------|
----------------------|------------------------|---------------0-------|
-------0---------0----|-------0----------0-----|-------0----------0----|
--0---------0---------|------------------------|-----------------------|
----------------------|--3---------3-----------|--3---------3----------|

    
--0---------------0--3--|----------------------|------------------------|
---------------3--------|----------------------|-----0-----0------------|
------------------------|----------------------|--3---------------------|
-------2----------2-----|-------0---------0----|--------0----------0----|
--3---------3-----------|------------2---------|------------------------|
------------------------|--3-------------------|--3-----------3---------|

  
----3-----0--------------|--0---------------------|-----3--------3--------3-|
----------------3-----3--|---------------0--------|-----------0-------------|
-------------------------|------------3--------0--|-----------------0-------|
-------0-----------0-----|-------0----------0-----|--------0-----------2----|
-------------------------|------------------------|-------------------------|
-3-----------3-----------|--3---------3-----------|--3-----------3----------|


  
---------------------|--3/7---------3/7---------|--3/7-------3-----1--------|
---------------------|--------------------------|------------------------1--|
---------------------|--------------------------|---------------------------|
------0---------0----|---------0-----------0----|---------0-----------0-----|
---------------------|--------------------------|---------------------------|
-3---------3---------|--3/7---------3/7---------|--3/7----------3-----------|

     
--0---------------0--3--|----------------------|--3/7---------3/7---------|
---------------3--------|----------------------|--------------------------|
------------------------|----------------------|--------------------------|
-------2----------2-----|-------0---------0----|---------0-----------0----|
------------3-----------|----------------------|--------------------------|
--3---------------------|--3---------3---------|--3/7---------3/7---------|

    
--3/7---------3---------|-----5-----------2--------|----------------------|
------------------------|-----------2-----------3--|----------------------|
------------------------|--------------------------|----------------------|
---------0---------0----|--------2-----------2-----|-------0---------0----|
------------------------|--0-----------0-----------|--0---------0---------|
--3/7---------3---------|--------------------------|----------------------|

 
-3/7---------3/7--------|--3/7-------3-----1--------|--0---------------0--3-|
------------------------|------------------------1--|---------------3-------|
------------------------|---------------------------|-----------------------|
--------0-----------0---|---------0-----------0-----|-------2----------2----|
------------------------|---------------------------|--3---------3----------|
-3/7---------3/7--------|--3/7----------3-----------|-----------------------|

   
----------------------|------------------------|-----3-----0--------------|
----------------------|-----0-----3------------|-----------------3-----3--|
----------------------|--3---------------------|--------------------------|
-------0---------0----|--------0----------0----|--------0-----------0-----|
------------2---------|------------------------|--------------------------|
--3-------------------|--3-----------3---------|--3-----------3-----------|

                
--0---------------------|-----3--------3--------3--|--3----------------|
---------------0--------|-----------0-----0--------|--0----------------|
------------3--------0--|--------------------------|--0----------------|
-------0----------0-----|--------0-----------0-----|--0----------------|
------------------------|--------------------------|-------------------|
--3---------3-----------|--3-----------3-----------|--3----------------|

| /  slide up
| \  slide down
| h  hammer-on
| p  pull-off
| ~  vibrato
| +  harmonic
| x  Mute note
===========================================================================
comments
We did not receive enough feedback on this tab! Please rate:
print report bad tab
1 2 3 4 5
I want to post or [tab]
guest
You may want to rate the tab now too:
select rating
Please do not post tabs as comments. Select "correction" instead!