Oops, an error
Loading. Please wait.

Funky Butt intro tab

34 views 18 this week
2 commentsread comments
1 2 3 4 5
3 more votes to show rating
add to favorites
×
Save as Personal and add changes to this tab that will be seen only by you. Learn more ›
×
You can save this tab as Personal to edit and correct it or add notes. All changes will be seen only by you. Learn more »
launch autoscroll
font size
0
reset
how to read this tab
guitar tuner
edit
Autoscroll
slow
fast
+/-
esc
set tempo
stop
About this tab version
Guitar intro, essentially repeated with minor variations in the 3rd and 4th bars to comprise the song. Was this info helpful? Yes No
FUNKY BUTT - Mississippi John Hurt, from "Last Sessions"


  G                            C        G                            C    
e|--3---3---2---2---|--1---1-0---------|------3---2---2---|--1---1-0---------|
B|----0---0---0---0-|----0-------------|----0---0---0-----|----0-------------|
G|------------------|------------------|------------------|------------------|
D|------0-------0---|------0-------2---|------0-------0---|------0-------2---|
A|------------------|----------3-------|------------------|----------3-------|
E|--3-------3-------|--3---------------|--3-------3-------|--3---------------|

  F                  C                  F                  C 
e|------------------|--0---0-----------|------------------|--0---0-----------|
B|--3-1----3-1------|----3---1---------|--3-1----3-1------|----3---1---------|
G|------2------2----|------------------|------2------2----|--------------2---|
D|------------------|------2-------2---|------------------|------2-------0---|
A|------------------|--3-------3-------|------------------|--3-------3-------|
E|--1---------------|------------------|--1---------------|------------------|

  G                  C
e|------------------|------------------|------------------|------------------|
B|------------0-----|-0h1-----1--------|------------------|------------------|
G|--0-----0-2-------|------------------|------------------|------------------|
D|------0-------0---|-------2-------2--|------------------|------------------|
A|------------------|---3-------3------|------------------|------------------|
E|--3-------3-------|------------------|------------------|------------------|


***********************************
| h   Hammer-on
***********************************

            
            
Suggest correction
Creating personal tab
Creating personal tab
You can edit any tab online and save it as your Personal.

You can edit, replace or remove any tab part or add personal notes – all changes will be seen only by you.

Personal tabs can be accessed anytime from any device, even offline.
Learn more »
Give kudos to tab author, rate the tab!
1 2 3 4 5
comments
print report bad tab
2 comments total.
0 reply
greggerz 108 2 days ago

Lyrics (from recoring):

I thought I heard somebody say
Funky butt, stinky butt, take it away
'Cause I don't like it nohow.

You see that girl with the red dress on
She got funky butt, stinky butt, sure as you're born
'Cause I don't like it nohow.

I thought I heard somebody say
[drop lyrics], take it away
[drop lyrics], take it away
'Cause I don't like it nohow.

I [drop lyrics] Buddy Bolden shout
Open the window, let the funk go out
'Cause I don't like it nohow.

0 reply
greggerz 108 a day ago

This song is also known as "Buddy Bolden's Blues." A pretty great history of it can be found here: http://www.mikeballantyne.ca/transcriptions_other/bolden.php

guest
You may want to rate the tab now too:
select rating
Wanna post a correction for this tab? Suggest correction