Oops, an error
Loading. Please wait.

Got The Blues Tab

version 1
version 1

Whole song

Interactive

4,008 views 1 this week
no commentswrite comment
1 2 3 4 5
please rate
add to favorites
launch autoscroll
font size
0
reset
how to read this tab
guitar tuner
Autoscroll
slow
fast
+/-
esc
set tempo
stop
Help us to improve Ultimate-Guitar.com Take our survey!
×
Author
Tabbers playing skills
advanced
----------------------------------------------------------------------------
          Got the Blues (Can't be Satisfied) - Mississippi John Hurt
----------------------------------------------------------------------------

Tabbed by: Dave S. 
Email: prime-prine@hotmail.com

Tuning: Standard

                                               

E||-------0-----1-----0-----|-----0--------1-----0-----|
B||--3-------3-----3-----3--|-----------3-----3-----3--|
G||-------------------------|--------------------------|
D||-------0-----------0-----|--------0-----------0-----|
A||-------------------------|--------------------------|
E||--3----------3-----------|--3-----------3-----------|


----0--------1-----0-----|--1----0--------------|-------------3--------3----|
----------3-----3-----3--|----------3-----------|-------5-----------5-------|
-------------------------|----------------------|---------------------------|
-------0-----------0-----|-------0----------0---|----------0-----------0----|
-------------------------|----------------------|---------------------------|
-3-----------3-----------|--3----------3--------|--3/5-----------5----------|


----5--3----------------|-------------------------|-------------------------|
----------0-------------|-------------0-----------|-------------0-----------|
---------------0-----0--|----------3-----0-----0--|----------3-----0-----0--|
------------------2-----|-------0-----------2-----|-------0-----------2-----|
-0----------------------|-------------------------|-------------------------|
------------------------|--3----------3-----------|--3----------3-----------|

  
----------------------|-------0-----1-----0-----|-----0--------1-----0-----|
----------------------|--3-------3-----3-----3--|-----------3-----3-----3--|
----------------------|-------------------------|--------------------------|
-------0---------0----|-------0-----------0-----|--------0-----------0-----|
----------------------|-------------------------|--------------------------|
--3---------3---------|--3----------3-----------|--3-----------3-----------|


----0--------1-----0-----|--1----0--------------|-------------3--------3----|
----------3-----3-----3--|----------3-----------|-------5-----------5-------|
-------------------------|----------------------|---------------------------|
-------0-----------0-----|-------0----------0---|----------0-----------0----|
-------------------------|----------------------|---------------------------|
-3-----------3-----------|--3----------3--------|--3/5-----------5----------|

  
----5--3----------------|-------------------------|-------------------------|
----------0-------------|-------------0-----------|-------------0-----------|
---------------0-----0--|----------3-----0-----0--|----------3-----0-----0--|
------------------2-----|-------0-----------2-----|-------0-----------2-----|
-0----------------------|-------------------------|-------------------------|
------------------------|--3----------3-----------|--3----------3-----------|

  
----------------------|-------0--------5-------|--5----3----0-----------|
----------------------|--3/7--------7----------|------------------------|
----------------------|------------------------|---------------3--4--0--|
-------0---------0----|----------0--------0----|------------------------|
----------------------|--0-------------0-------|------------------------|
--3---------3---------|------------------------|------------------------|

    
-------------------------|-------------------------|----------------------|
-------------0-----------|-------------0-----------|----------------------|
----------3-----0-----0--|----------3-----0-----0--|----------------------|
-------0-----------2-----|-------0-----------2-----|-------0---------0----|
-------------------------|-------------------------|----------------------|
--3----------3-----------|--3----------3-----------|--3---------3---------|

  
------0-----1-----0-----|----0--------1-----0-----|-----0--------1-----0----|
-3-------3-----3-----3--|----------3-----3-----3--|-----------3-----3-----3-|
------------------------|-------------------------|-------------------------|
------0-----------0-----|-------0-----------0-----|--------0-----------0----|
------------------------|-------------------------|-------------------------|
-3----------3-----------|-3-----------3-----------|--3-----------3----------|

   
-1----0---------------|-------------3--------3----|-----5--3----------------|
---------3------------|-------5-----------5-------|-----------0-------------|
----------------------|---------------------------|----------------0-----0--|
------0----------0----|----------0-----------0----|-------------------2-----|
----------------------|---------------------------|--0----------------------|
-3----------3---------|--3/5-----------5----------|-------------------------|

   
-------------------------|-------------------------|----------------------|
-------------0-----------|-------------0-----------|----------------------|
----------3-----0-----0--|----------3-----0-----0--|----------------------|
-------0-----------2-----|-------0-----------2-----|-------0---------0----|
-------------------------|-------------------------|----------------------|
--3----------3-----------|--3----------3-----------|--3---------3---------|


   
-------0--------5-------|--5----3----0-----------|-------------------------|
--3/7--------7----------|------------------------|-------------0-----------|
------------------------|---------------3--4--0--|----------3-----0-----0--|
----------0--------0----|------------------------|-------0-----------2-----|
-0--------------0-------|------------------------|-------------------------|
------------------------|------------------------|--3----------3-----------|

                
-------------------------|----------------------|--3----------------|
-------------0-----------|----------------------|--0----------------|
----------3-----0-----0--|----------------------|--0----------------|
-------0-----------2-----|-------0---------0----|--0----------------|
-------------------------|----------------------|-------------------|
--3----------3-----------|--3---------3---------|--3----------------|

| /  slide up
| \  slide down
| h  hammer-on
| p  pull-off
| ~  vibrato
| +  harmonic
| x  Mute note
===========================================================================
Suggest correction new What's this?
You can suggest a correction to this tab. Community and Mods will review your correction and vote to approve or reject it.
comments
We did not receive enough feedback on this tab! Please rate:
print report bad tab
1 2 3 4 5
guest
You may want to rate the tab now too:
select rating
Please do not post tabs as comments. Select "correction" instead!