Oops, an error
Loading. Please wait.

Louis Collins Chords

version 1
version 1

Whole song

Interactive

7,417 views 15 this week
no commentswrite comment
1 2 3 4 5
please rate
add to favorites
launch autoscroll
font size
0
reset
transpose
0
reset
simplify chords
display chords
guitar tuner
Autoscroll
slow
fast
+/-
esc
set tempo
stop
Help us to improve Ultimate-Guitar.com Take our survey!
×
Author
Louis Collins
Shady Grove
(Mississippi John Hurt)

 Last Updated 01/19/97

General Rules On Chord Charts

Intro

G7                   C
Miz Collins weep Miz Collins mourn
                        F
What made her son Louis leave his home
C      F    G    C
Angels laid him away. (I said)

Chorus:
G7               C
Angels laid him away
                         F
They laid him six feet under the clay
C      F    G    C
Angels laid him away

Chorus

Oh, kind friends now ain't it hard
To see poor Louis in a new graveyard
Where angels laid him away.

When they heard that Louis was dead
All the women folk dressed in red,
'Cos angels have laid him away.

Chorus

Bob shot one and Louis shot two
Shot poor Collins, shot him through and through -
Now angels have laid him away.

Chorus


--------------------------------------------------------------------------------

Intro
(^) Slide Up  () Slide Down  (h) Hammer On  (p) Pull Off  (b) Bend

MIDI Tab Support Audio (lcollins.mid)

             G7                C
E----------------3---3^5---1---0--------3-------------------|
B----------------------------------3^5----------------------|
G-----------------------------------------------------------|
D-----------------------------------------------------------|
A---3--2--0--------------------3----------------------------|
E------------3----------------------------------------------|

    C                F
E----------3-------------------------------------------------|
B---5-3h5-----5--3--------1--3--1----------------------------|
G--------------------0h2-------------------------------------|
D------------------------------------------------------------|
A------------------------------------------------------------|
E------------------------------------------------------------|
    C        F    G    C
E---0-------------------------------------------------------|
B------3p1--------1h3--1------------------------------------|
G------------0h2--------------------------------------------|
D-----------------------------------------------------------|
A-----------------------------------------------------------|
E-----------------------------------------------------------|

Downloaded From:
www.ogregod.com
Suggest correction
Give kudos to tab author, rate the tab!
1 2 3 4 5
comments
print report bad tab
guest
You may want to rate the tab now too:
select rating
Wanna post a correction for this tab? Suggest correction