Oops, an error
Loading. Please wait.

Louis Collins Tab

version 2
version 2

Whole song

Interactive

1,189 views 3 this week
no commentswrite comment
1 2 3 4 5
please rate
add to favorites
launch autoscroll
font size
0
reset
how to read this tab
guitar tuner
Autoscroll
slow
fast
+/-
esc
set tempo
stop
Help us to improve Ultimate-Guitar.com Take our survey!
×
Author
Difficulty
intermediate
-----------------------------------------------------------------------------
                   Louis Collins - Mississippi John Hurt
-----------------------------------------------------------------------------
Tabbed by: Themanatease
Email: guitarbart@hotmail.com

Tuning: standard

This is how I think Mississippi John Hurt plays it, and I think the tab is pretty accurate.

These are the chords:
G C G C F C G C

This is the tab:
   G            C        G    C          F           C     G     C
e|-3--3/5-3-1---0-0------3----0-0--3-3---------------0-------0----------|
B|-------------------3/5---------------3-1-1-3-1-------1---0---3-1-1----|
G|----------------------------------------2--2---2-2--------------------|
D|--0-0----0-0---2--------0-0--2--2-2--2-3--3--3--3---2--2--0--0--2--2-2|
A|--------------3-------------3----3-----------------3--3--------3----3-|
E|-3-3----3-3------3-----3-3-----3----3--------------------3--3-----3---|

Repeat the tab over and over again. if the numbers above are too close together, 
down here i've put them wider apart from each other.


   G                    C            G        C          F     
e|-3-----3/5--3---1-----0---0--------3--------0---0-----3---3----|
B|------------------------------3/5---------------------------3--|
G|---------------------------------------------------------------|
D|---0---0------0---0-----2------------0---0----2-----2---2------|
A|----------------------3---------------------3---------3--------|
E|-3---3------3---3-----------3------3---3----------3---------3--|

   F                  C          G          C
e|--------------------0--------------0-------------------|
B|-1---1---3-1------------1------0-------3--1---1--------|
G|---2-----2---2---2-------------------------------------|
D|-3-----3---3---3------2-----2----0-----0----2-----2---2|
A|--------------------3-----3---------------3---------3--|
E|-------------------------------3-----3----------3------|

************************************
| /   slide up

Have fun playing!
Suggest correction
Give kudos to tab author, rate the tab!
1 2 3 4 5
comments
print report bad tab
guest
You may want to rate the tab now too:
select rating
Please do not post tabs as comments. Select "correction" instead!