Oops, an error
Loading. Please wait.

Praying On The Old Campground Tab

version 1
version 1

Whole song

Interactive

1,271 views 1 this week
no commentswrite comment
1 2 3 4 5
2 more votes to show rating
add to favorites
launch autoscroll
font size
0
reset
how to read this tab
guitar tuner
Autoscroll
slow
fast
+/-
esc
set tempo
stop
Help us to improve Ultimate-Guitar.com Take our survey!
×
Author
Tabbers playing skills
----------------------------------------------------------------------------
           Praying On The Old Campgrounds - Mississippi John Hurt
----------------------------------------------------------------------------

Tabbed by: Dave S. 
Email: prime-prine@hotmail.com

Tuning: Standard



E||--0--0-----------------|-----------------------|--------------0---------|
B||----------3--1----1----|-----1-----------------|--1-----1----------1----|
G||-----------------------|--2-------2--0---------|-----0-----0------------|
D||-----------------------|------------------2----|--------2----------2----|
A||--3----------3----3----|-------------3---------|--3-----------3---------|
E||-----------------------|--1--------------------|------------------------|

   
------------------------|--0--0------------------|------------------1----|
--3------------3--------|--1--1----3--1-----1----|-----1-----------------|
---------------------0--|----------------0-------|--2-------2--0---------|
-------0----------0-----|------------------------|------------------3----|
------------------------|--3----------------3----|-------------3---------|
--3---------3-----------|------------------------|--1--------------------|

     
--0-----0---------------|----------------------|--0--0-----------------|
--------------3----3----|--1-------------------|----------3--1----1----|
-----0-----0------------|----------------------|-----------------------|
--------2----------0----|-------2---------2----|-----------------------|
--3---------------------|--3-------------------|--3----------3----3----|
--------------3---------|------------3---------|-----------------------|

  
-----------------------|--------------0---------|------------------------|
-----1-----------------|--1-----1----------1----|--3------------3--------|
--2-------2--0---------|-----0-----0------------|---------------------0--|
------------------2----|--------2----------2----|-------0----------0-----|
-------------3---------|--3-----------3---------|------------------------|
--1--------------------|------------------------|--3---------3-----------|

     
--0--0------------------|------------------1----|--0-----0---------------|
--1--1----3--1-----1----|-----1-----------------|--------------3----3----|
----------------0-------|--2-------2--0---------|-----0-----0------------|
------------------------|------------------3----|--------2----------0----|
--3----------------3----|-------------3---------|--3---------------------|
------------------------|--1--------------------|--------------3---------|

   
----------------------|--0--0-----------------|-----------------------|
--1-------------------|----------3--1----1----|-----1-----------------|
----------------------|-----------------------|--2-------2--0---------|
-------2---------2----|-----------------------|------------------2----|
--3-------------------|--3----------3----3----|-------------3---------|
------------3---------|-----------------------|--1--------------------|

     
--------------0---------|------------------------|--0--0------------------|
--1-----1----------1----|--3------------3--------|--1--1----3--1-----1----|
-----0-----0------------|---------------------0--|----------------0-------|
--------2----------2----|-------0----------0-----|------------------------|
--3-----------3---------|------------------------|--3----------------3----|
------------------------|--3---------3-----------|------------------------|

     
------------------1----|--0-----0---------------|----------------------|
-----1-----------------|--------------3----3----|--1-------------------|
--2-------2--0---------|-----0-----0------------|----------------------|
------------------3----|--------2----------0----|-------2---------2----|
-------------3---------|--3---------------------|--3-------------------|
--1--------------------|--------------3---------|------------3---------|

              
--0----------------||
--1----------------||
--0----------------||
--2----------------||
--3----------------||
--3----------------||

| /  slide up
| \  slide down
| h  hammer-on
| p  pull-off
| ~  vibrato
| +  harmonic
| x  Mute note
===========================================================================
Suggest correction
Give kudos to tab author, rate the tab!
1 2 3 4 5
comments
print report bad tab
guest
You may want to rate the tab now too:
select rating
Wanna post a correction for this tab? Suggest correction