Oops, an error
Loading. Please wait.

Satisfied Blues Tab

version 1
version 1

Whole song

Interactive

1,416 views 12 this week
no commentswrite comment
1 2 3 4 5
please rate
add to favorites
launch autoscroll
font size
0
reset
how to read this tab
guitar tuner
Autoscroll
slow
fast
+/-
esc
set tempo
stop
Help us to improve Ultimate-Guitar.com Take our survey!
×
Contributor
Tabbers playing skills
advanced
Artist: Mississippi John Hurt
Song: Satisfied Blues 

Tuning: Standard

 
|----------------------|--------------------0--|-----------------------|
|-----------1--3-------|---------------3-------|-----1-------1---------|
|----------------------|--2--------------------|-----------------------|
|-----------------2----|-------3---------------|--------3---------2----|
|-----------3----------|-----------------------|-------------3---------|
|----------------------|--1---------1----------|--1--------------------|


-----------------------|------------------------|-----------------------|
------------1-------3--|-----1------------------|-----------------------|
-----------------------|-------------3/4-----0--|------------3/4-----0--|
-------2---------2-----|--------2---------0-----|-------0---------0-----|
------------3----------|------------------------|-----------------------|
--3--------------------|--3---------------------|--3---------3----------|


---------------3-----1--|-----3--------0---------|-------0--------------|
------------------------|------------------------|--1---------1----3----|
------------------------|-----------0------------|----------------------|
-------0----------0-----|--------0----------2----|-------2---------2----|
------------------------|--------------3---------|--3---------3---------|
--3---------3-----------|--3---------------------|----------------------|


---------------------0--|-----------------------|-----------------------|
--1------------3--------|-----3-------1---------|------------1-------3--|
------------------------|-----------------------|--0--------------------|
-------3----------3-----|--------3---------2----|-------2---------2-----|
------------------------|-------------3---------|------------3----------|
--1---------1-----------|--1--------------------|--3--------------------|


 
------------------------|-----------------------|-------------------------|
-----1------------------|-----------------------|-----------------3/6--0--|
-------------3/4-----0--|------------3/4-----0--|-------------------------|
--------2---------0-----|-------0---------0-----|-------0-----------0-----|
------------------------|-----------------------|-------------------------|
--3---------------------|--3---------3----------|--3---------3------------|


   
--0---------------------|----------------------|--------------------0--|
-----3-------1-------1--|------------1----3----|---------------3-------|
------------------------|----------------------|--2--------------------|
--------0---------2-----|-------2---------2----|-------3---------------|
-------------3----------|------------3---------|-----------------------|
--3---------------------|--3-------------------|--1---------1----------|


 
-----------------------|-----------------------|------------------------|
-----1-------1---------|------------1-------3--|-----1------------------|
-----------------------|-----------------------|-------------3/4-----0--|
--------3---------2----|-------2---------2-----|--------2---------0-----|
-------------3---------|------------3----------|------------------------|
--1--------------------|--3--------------------|--3---------------------|


    
-----------------------|---------------3-----1--|-----3--------0---------|
-----------------------|------------------------|------------------------|
------------3/4-----0--|------------------------|-----------0------------|
-------0---------0-----|-------0----------0-----|--------0----------2----|
-----------------------|------------------------|--------------3---------|
--3---------3----------|--3---------3-----------|--3---------------------|


    
-------0--------------|---------------------0--|-----------------------|
--1---------1----3----|--1------------3--------|-----3-------1---------|
----------------------|------------------------|-----------------------|
-------2---------2----|-------3----------3-----|--------3---------2----|
--3---------3---------|------------------------|-------------3---------|
----------------------|--1---------1-----------|--1--------------------|

   
-----------------------|------------------------|-----------------------|
------------1-------3--|-----1------------------|-----------------------|
--0--------------------|-------------3/4-----0--|------------3/4-----0--|
-------2---------2-----|--------2---------0-----|-------0---------0-----|
------------3----------|------------------------|-----------------------|
--3--------------------|--3---------------------|--3---------3----------|


                
-------------------------|--0-------------------|
-----------------3/6--0--|-----3-------1--------|
-------------------------|-------------0--------|
-------0-----------0-----|--------0----2--------|
-------------------------|-------------3--------|
--3---------3------------|--3-------------------|


************************************

| /   slide up
| \   slide down
| h   hammer-on
| p   pull-off
| ~   vibrato
| +   harmonic
| x   Mute note
| b   Bend
| pb  Pre-bend
| br  Bend release
| pbr Pre-bend release
| brb Bend release bend

************************************
Suggest correction new What's this?
You can suggest a correction to this tab. Community and Mods will review your correction and vote to approve or reject it.
comments
We did not receive enough feedback on this tab! Please rate:
print report bad tab
1 2 3 4 5
guest
You may want to rate the tab now too:
select rating
Please do not post tabs as comments. Select "correction" instead!