Oops, an error
Loading. Please wait.

See See Rider Tab

version 1
version 1

Whole song

Interactive

6,608 views 1 this week
no commentswrite comment
1 2 3 4 5
please rate
add to favorites
launch autoscroll
font size
0
reset
how to read this tab
guitar tuner
Autoscroll
slow
fast
+/-
esc
set tempo
stop
Help us to improve Ultimate-Guitar.com Take our survey!
×
Author
Tabbers playing skills
----------------------------------------------------------------------------
                See See Rider - Mississippi John Hurt
----------------------------------------------------------------------------


Tuning: Standard



    A            D                                  A
e|--5-------1/2--|------------------------2------|--5--5-------1---0--|
B|---------------|------0h3-------3--------------|--2-----------------|
G|---------------|-------------------------------|--------------------|
D|------2--------|--0---------0---------------0--|---------0-------0--|
A|--0-------0----|------0-------------0----------|--0----------0------|
E|---------------|-------------------------------|--------------------|


    D                         G
e|----------2--------------|------------------------------------------|
B|--3---------------3------|--0-------0---3-------3-------0---3-------|
G|-------------------------|------0-------------------0-----------0---|
D|------0---------------0--|----------0-------0-----------0-------0---|
A|--0-----------0----------|------------------------------------------|
E|-------------------------|--3-----------3-------3-----------3-------|


    D                                   G
e|-------------2---2----------1---0--|-------------------------------------|
B|-------------3---3----------3---0--|--0-----0---3-------3-----0---3------|
G|--2--------------------------------|-----0-----------------0----------0--|
D|------0--------0---------0----0----|--------0-------0---------0-------0--|
A|--0-------0----------0-------------|-------------------------------------|
E|-----------------------------------|--3---------3-------3---------3------|


    D                                      A
e|-------------2---2----------2---2-----|------------5-----5------|
B|-------------3---3----------3---3-----|--1/2-------2-----2------|
G|--2-----------------------------------|-------------------------|
D|------0--------0---------0---------0--|--------2-------------0--|
A|--0-------0----------0--------0-------|--0------------0---------|
E|--------------------------------------|-------------------------|


    D
e|--1/2------0------------------------------------------------------|
B|-------------------3-------3-----------3------0---3---------------|
G|------------------------------------------------------------------|
D|-------0---------------0-------0-----------0-----------0-------0--|
A|--0------------0-----------0-------0--------------0--------0------|
E|------------------------------------------------------------------|


| /  slide up
| \  slide down
| h  hammer-on
| p  pull-off
| ~  vibrato
| +  harmonic
| x  Mute note
===========================================================================
Suggest correction
Give kudos to tab author, rate the tab!
1 2 3 4 5
comments
print report bad tab
guest
You may want to rate the tab now too:
select rating
Wanna post a correction for this tab? Suggest correction