Oops, an error
Loading. Please wait.

See See Rider Tab

version 2
version 2

Whole song

Interactive

1,437 views 6 this week
no commentswrite comment
1 2 3 4 5
3 more votes to show rating
add to favorites
launch autoscroll
font size
0
reset
how to read this tab
guitar tuner
Autoscroll
slow
fast
+/-
esc
set tempo
stop
Help us to improve Ultimate-Guitar.com Take our survey!
×
Author
Tabbers playing skills
----------------------------------------------------------------------------
                 See See Rider - Mississippi John Hurt
----------------------------------------------------------------------------


Tabbed by: Dave S. 
Email: prime-prine@hotmail.com

Tuning: Standard



 
E||----------------------|--5--------------1s--2--|---------------2--------|
B||----------------------|------------------------|--3------------3--------|
G||-------------------2--|------------------------|-------2-------------2--|
D||----------------------|-------0---------0------|-------0----------0-----|
A||----------------------|--0---------0-----------|--0---------0-----------|
E||----------------------|------------------------|------------------------|

    
-----5-------1//2--------0h1-----|--0----------------------|
-----2-------------3----------0--|--------0--3-------------|
---------------------------------|-----0-----------0-------|
--------2-------2----------0-----|--------0-----------0----|
--0----------0--------0----------|--------------2----------|
---------------------------------|--3----------------------|

    
--0-----------------------|-------2-------2--------|--1-----1--1-----0------|
--------0--3--------0-----|-------3-------3-----3--|--3--3--3--3------------|
-----3-----------0-----2--|------------------------|------------------------|
--------0-----------0-----|-------0----------0-----|--------0-----------0---|
--------------2-----------|--0---------0-----------|--0-----------0---------|
--3-----------------------|------------------------|------------------------|

   
--0----------------------|--0-----------------------|-------2-------2-------|
--------0--3-------------|--------0--3--------0-----|-------3-------3-----3-|
-----3-----------0-------|-----3-----------0-----2--|-----------------------|
--------0-----------0----|--------0-----------0-----|-------0----------0----|
--------------2----------|--------------2-----------|--0---------0----------|
--3----------------------|--3-----------------------|-----------------------|

    
--2-----2--2-------------|--5--5-----5-----1--1/2----|
--3--3--3--3-------------|--2--2-----2---------------|
----------------------2--|---------------------------|
--------0----------0-----|--------2-------------0----|
--0-----------0----------|--0-----------0------------|
-------------------------|---------------------------|

    
--------------------------|--------2--2-----2-----2--|----------------------|
--3--3--------0-----0--3--|-----3--3--3-----3-----3--|----------------------|
-----------0-----0--------|--------------------------|----------------------|
--------0-----------0-----|--------0-----------0-----|-------0---------0----|
--0-----------0-----------|--0-----------0-----------|--0---------0---------|
--------------------------|--------------------------|----------------------|

   
--5--------------1s2--|---------------2--------|
----------------------|--3------------3--------|
----------------------|-------2-------------2--|
-------0---------0----|-------0----------0-----|
--0---------0---------|--0---------0-----------|
----------------------|------------------------|

    
-----5-------1//2--------0h1-----|--0----------------------|
-----2-------------3----------0--|--------0--3-------------|
---------------------------------|-----0-----------0-------|
--------2-------2----------0-----|--------0-----------0----|
--0----------0--------0----------|--------------2----------|
---------------------------------|--3----------------------|

   
--0-----------------------|-------2-------2--------|--1-----1--1-----0------|
--------0--3--------0-----|-------3-------3-----3--|--3--3--3--3------------|
-----3-----------0-----2--|------------------------|------------------------|
--------0-----------0-----|-------0----------0-----|--------0-----------0---|
--------------2-----------|--0---------0-----------|--0-----------0---------|
--3-----------------------|------------------------|------------------------|

  
--0----------------------|--0-----------------------|-------2-------2-------|
--------0--3-------------|--------0--3--------0-----|-------3-------3-----3-|
-----3-----------0-------|-----3-----------0-----2--|-----------------------|
--------0-----------0----|--------0-----------0-----|-------0----------0----|
--------------2----------|--------------2-----------|--0---------0----------|
--3----------------------|--3-----------------------|-----------------------|

   
--2-----2--2-------------|--5--5-----5-----1--1/2----|
--3--3--3--3-------------|--2--2-----2---------------|
----------------------2--|---------------------------|
--------0----------0-----|--------2-------------0----|
--0-----------0----------|--0-----------0------------|
-------------------------|---------------------------|

     
--------------------------|--------2--2-----2-----2--|---------------------||
--3--3--------0-----0--3--|-----3--3--3-----3-----3--|---------------------||
-----------0-----0--------|--------------------------|---------------------||
--------0-----------0-----|--------0-----------0-----|-------0---------0---||
--0-----------0-----------|--0-----------0-----------|--0---------0--------||
--------------------------|--------------------------|---------------------||

| /  slide up
| \  slide down
| h  hammer-on
| p  pull-off
| ~  vibrato
| +  harmonic
| x  Mute note
===========================================================================
Suggest correction
Give kudos to tab author, rate the tab!
1 2 3 4 5
comments
print report bad tab
guest
You may want to rate the tab now too:
select rating
Wanna post a correction for this tab? Suggest correction