Oops, an error
Loading. Please wait.

When I Lay My Burden Down Tab

2,979 views 6 this week
no commentswrite comment
1 2 3 4 5
3 more votes to show rating
add to favorites
launch autoscroll
font size
0
reset
how to read this tab
guitar tuner
Autoscroll
slow
fast
+/-
esc
set tempo
stop
Help us to improve Ultimate-Guitar.com Take our survey!
×
Author
Difficulty
intermediate
Cover of Mississippi John Hurt http://www.youtube.com/watch?v=Lrorcij4EEY

Mississippi John Hurt  http://www.youtube.com/watch?v=6aI2Miy5kH0

                       When I Lay My Burden Down (in C) 

I have another tab on UG for this song; different artist different tuning 

http://tabs.ultimate-guitar.com/m/mississippi_fred_mcdowell
/when_i_lay_my_burden_down_tab.htm                       

   
E|----------------------|------------0---------|----------------------|
B|--1---------1---------|--1--------------3----|--1---------1---------|
G|----------------------|----------------------|----------------------|
D|-------2---------2----|-------2---------2----|-------2---------2----|
A|--3-------------------|--3-------------------|--3-------------------|
E|------------3---------|------------3---------|------------3---------|

  
------------0---------|------------------------|------------------------|
--1--------------3----|--1--3-----1------------|----------3-----1-------|
----------------------|------------------------|------------------------|
-------2---------2----|--------3----------3----|-------3-----------3----|
--3-------------------|------------------------|------------------------|
------------3---------|--1-----------1---------|--1----------1----------|

    
------------------------|------------------------|----------------------|
----------1-----1-------|----------1-------------|--1---------1---------|
------------------------|-------------0--2--0----|----------------------|
-------2----------------|-------2----------------|-------2---------2----|
--3----------------0----|--3---------------------|--3-------------------|
-------------3----------|-------------3----------|------------3---------|

    
------------0----3----|--3---------3---------|------------5----3----|
--1-------------------|----------------------|----------------------|
----------------------|----------------------|----------------------|
-------2---------2----|-------2---------2----|-------2--------------|
--3-------------------|--3-------------------|--3--------------3----|
------------3---------|------------3---------|------------5---------|

   
------------------------|------------------------|------------------------|
--1--3-----1------------|----------3-----1-------|----------1-----1-------|
------------------------|------------------------|------------------------|
--------3----------3----|-------3-----------3----|-------2----------------|
------------------------|------------------------|--3----------------0----|
--1-----------1---------|--1----------1----------|-------------3----------|

     
------------------------|
----------1-------------|
-------------0--2--0----|
-------2----------------|
--3---------------------|
-------------3----------|
Suggest correction
Give kudos to tab author, rate the tab!
1 2 3 4 5
comments
print report bad tab
guest
You may want to rate the tab now too:
select rating
Wanna post a correction for this tab? Suggest correction