Oops, an error
Loading. Please wait.

Steer tab

version 2
version 2

Whole song

  • A slightly more accurate version of the song than the other versions available.
241 views 3 this week
no commentswrite comment
1 2 3 4 5
3 more votes to show rating
add to favorites
×
Save as Personal and add changes to this tab that will be seen only by you. Learn more ›
×
You can save this tab as Personal to edit and correct it or add notes. All changes will be seen only by you. Learn more »
launch autoscroll
font size
0
reset
how to read this tab
guitar tuner
edit
Autoscroll
slow
fast
+/-
esc
set tempo
stop
Author
About this tab version
A slightly more accurate version of the song than the other versions available. Was this info helpful? Yes No
Guitar tab that Missy uses in this performance: https://www.youtube.com/watch?v=WeBAgSe6bTI
I'm unsure if the chords in the bridge are correct, but I think the rest of 
it is accurate.
Please let me know if you find any mistakes!

[Intro]
       E      E7       A        B
e|-----0-------0-------0---/----0----|
B|-----0-------0-------0---/----0----|  (x2)
G|-----9-------8-------6---/----8----|
D|-----9-------9-------7---/----9----|
A|-----7-------7-------7---/----9----|
E|-----x-------x-------x---/----x----|

[Verse]
       E      E7       A        B
e|-----0-------0-------0---/----0----|
B|-----0-------0-------0---/----0----|  (x3)
G|-----9-------8-------6---/----8----|
D|-----9-------9-------7---/----9----|
A|-----7-------7-------7---/----9----|
E|-----x-------x-------x---/----x----|

       E      E7       A        A
e|-----0-------0-------0--------0----|
B|-----0-------0-------0--------0----|
G|-----9-------8-------6--------6----|
D|-----9-------9-------7--------7----|
A|-----7-------7-------7--------7----|
E|-----x-------x-------x--------x----|

E       E7               A             B
Feel it falling off like clothing
E        E7              A             B
Taste it rolling on your tongue
E       E7               A             B
See the lights above you glowing
        E            E7             A        A
Oh, and breathe them deep into your lungs

[Pre-chorus]
       B       A       B        A
e|-----0-------0-------0--------0----|
B|-----0-------0-------0--------0----|
G|-----8-------6-------8--------6----|
D|-----9-------7-------9--------7----|
A|-----9-------7-------9--------7----|
E|-----x-------x-------x--------x----|

B                        A
   It was always simple,    not hidden hard
            B
You've been pulling at the strings

Playing puppeteer for kings
           A
And you've   had enough

[Chorus]
       E       B       A        B
e|-----0-------0-------0---/----0----|
B|-----0-------4-------2---/----4----|
G|-----1-------4-------2---/----4----|
D|-----2-------4-------2---/----4----|
A|-----2-------x-------0---/----x----|
E|-----x-------x-------0---/----x----|

      C#m      B       A       Asus2      E
e|-----4-------0-------0-------0-------0-|
B|-----5-------4-------2-------0-------0-|
G|-----6-------4-------2-------2-------9-|
D|-----6-------4-------2-------2-------9-|
A|-----4-------x-------0-------x-------7-|
E|-----x-------x-------0-------x-------x-|

(A)     E           B
But the search ends here
          A                            B
Where the night is totally clear
         C#m      B
And your heart is fierce
           A
So now you finally know
         Asus2
That you control where you go
        E
You can steer

[Instrumental]
       E      E7       A        B
e|-----0-------0-------0---/----0----|
B|-----0-------0-------0---/----0----|
G|-----9-------8-------6---/----8----|
D|-----9-------9-------7---/----9----|
A|-----7-------7-------7---/----9----|
E|-----x-------x-------x---/----x----|

[Verse 2]
       E      E7       A        B
e|-----0-------0-------0---/----0----|
B|-----0-------0-------0---/----0----|  (x3)
G|-----9-------8-------6---/----8----|
D|-----9-------9-------7---/----9----|
A|-----7-------7-------7---/----9----|
E|-----x-------x-------x---/----x----|

       E      E7       A        A
e|-----0-------0-------0--------0----|
B|-----0-------0-------0--------0----|
G|-----9-------8-------6--------6----|
D|-----9-------9-------7--------7----|
A|-----7-------7-------7--------7----|
E|-----x-------x-------x--------x----|

   E         E7             A             B
So hold this feeling like a newborn
   E         E7                 A             B
Of freedom surging through your veins
E        E7          A             B
You have opened up a new door
   E            E7            A        A
So bring on the wind fire and rain

[Pre-chorus]
       B       A       B        A
e|-----0-------0-------0--------0----|
B|-----0-------0-------0--------0----|
G|-----8-------6-------8--------6----|
D|-----9-------7-------9--------7----|
A|-----9-------7-------9--------7----|
E|-----x-------x-------x--------x----|

B                        A
   It was always simple,    not hidden hard
            B
You've been played at a game

Called remembering your name
        A
And you   stuffed it up

[Chorus]
       E       B       A        B
e|-----0-------0-------0---/----0----|
B|-----0-------4-------2---/----4----|
G|-----1-------4-------2---/----4----|
D|-----2-------4-------2---/----4----|
A|-----2-------x-------0---/----x----|
E|-----x-------x-------0---/----x----|

      C#m      B       A       Asus2    E
e|-----4-------0-------0-------0-----0-|
B|-----5-------4-------2-------0-----0-|
G|-----6-------4-------2-------2-----9-|
D|-----6-------4-------2-------2-----9-|
A|-----4-------x-------0-------x-----7-|
E|-----x-------x-------0-------x-----x-|

(A)     E           B
But the search ends here
          A                            B
Where the night is totally clear
         C#m      B
And your heart is fierce
           A
So now you finally know
         Asus2
That you control where you go
        E      B
You can steer, oh
           A
So now you finally know
         Asus2
That you control where you go

You can steer

[Bridge]
       B       C#m      Asus2
e|-----0-------0-------0-----------|
B|-----0-------0-------0-----------|
G|-----4-------6-------2-----------|
D|-----4-------6-------2-----------|
A|-----2-------4-------0-----------|
E|-----x-------x-------0-----------|

B                    C#m           A
   'cause you've been listening for answers
            B               C#m                  A
Oh, but the city screams and all your dreams go unheard

[Instrumental]
       E       E7
e|-----0-------0--|
B|-----0-------0--|
G|-----9-------8--|
D|-----9-------9--|
A|-----7-------7--|
E|-----x-------x--|

[Chorus]
       E       B       A        B
e|-----0-------0-------0---/----0----|
B|-----0-------4-------2---/----4----|
G|-----1-------4-------2---/----4----|
D|-----2-------4-------2---/----4----|
A|-----2-------x-------0---/----x----|
E|-----x-------x-------0---/----x----|

      C#m      B       A     Asus2   E
e|-----4-------0-------0-------0-----0-|
B|-----5-------4-------2-------0-----0-|
G|-----6-------4-------2-------2-----9-|
D|-----6-------4-------2-------2-----9-|
A|-----4-------x-------0-------x-----7-|
E|-----x-------x-------0-------x-----x-|

(A)     E           B
But the search ends here
          A                            B
Where the night is totally clear
         C#m      B
And your heart is fierce
           A
So now you finally know
         Asus2
That you control where you go
        E      B
You can steer, oh
          A                                        E    B
Yeah, get out of the box and step into the clear,      oh
               A
'cause now you finally know you can steer

[Outro]
       E      E7       A        B
e|-----0-------0-------0---/----0----|
B|-----0-------0-------0---/----0----|   end on E
G|-----9-------8-------6---/----8----|
D|-----9-------9-------7---/----9----|
A|-----7-------7-------7---/----9----|
E|-----x-------x-------x---/----x----|


************************************

| x   Dead note
| /   Slide

************************************

            
            
Suggest correction
Creating personal tab
Creating personal tab
You can edit any tab online and save it as your Personal.

You can edit, replace or remove any tab part or add personal notes – all changes will be seen only by you.

Personal tabs can be accessed anytime from any device, even offline.
Learn more »
Give kudos to tab author, rate the tab!
1 2 3 4 5
comments
print report bad tab
guest
You may want to rate the tab now too:
select rating
Wanna post a correction for this tab? Suggest correction