Oops, an error
Loading. Please wait.

Bronx Sniper Bass Tab

941 views 1 this week
1 commentread comment
1 2 3 4 5
2 more votes to show rating
add to favorites
launch autoscroll
font size
0
reset
guitar tuner
Autoscroll
slow
fast
+/-
esc
set tempo
stop
Help us to improve Ultimate-Guitar.com Take our survey!
×
Author
Difficulty
novice
Hi. first tab, great band.

Intro thing

D                F           G
  Later on, in the epilogue, without me
D           F                  G
  Right now, the whole town is frightened
D                       F               G
  In the Bronx, when the guns go off we like it
    D~~
We like it

Verse
G------------|---------|---------|--------|4X
D------------|---------|---------|--------|   Then He Sings
A------------|---------|---------|--8---10|
E---10--10-8-|10--10-8-|10--10-8-|6---8---|
 ff du  du da du

then play it more during the verse 4 more times

Chorus
G---------------------------|2X
D---------------------------|   Then He Sings
A------------------8--------|
E-10-10-10-10p8-6-6-5-5h8h10|

then play it 4 more times

Bridge thing(1:47) whole thing twice
G---------------------------|(3X)|-----------------------|----------------|
D---------------------------|    |-----------------------|----------------|
A------------------------7h8|    |-----------------------|----------------|
E-10-10-10-10-10-10-10-10---|    |-10-10-10-10-10-10-8---|5-5-5-5-5-5-8---|

Verse:same
Chorus:same
 then stuff

bye

http://www.misterheavenly.com/
Suggest correction
Give kudos to tab author, rate the tab!
1 2 3 4 5
comments
print report bad tab
1 comment total.
0 reply
illarimeza 10 Nov 01, 2015 05:43 PM

Doesn't sound too right

guest
You may want to rate the tab now too:
select rating
Wanna post a correction for this tab? Suggest correction