Oops, an error
Loading. Please wait.

Reflections intro tab

433 views 3 this week
no commentswrite comment
1 2 3 4 5
1 last vote to show rating
add to favorites
×
Save as Personal and add changes to this tab that will be seen only by you. Learn more ›
×
You can save this tab as Personal to edit and correct it or add notes. All changes will be seen only by you. Learn more »
launch autoscroll
font size
0
reset
how to read this tab
guitar tuner
edit
Autoscroll
slow
fast
+/-
esc
set tempo
stop
Author
-------------------------------------------------------------------------------
                             Reflections - MisterWives
-------------------------------------------------------------------------------
Tabbed by: guitarlovr17

For all the MisterWives fans out there! 
This is from their amazing live performance of Reflections.
 (https://www.youtube.com/watch?v=vLOOZsEdgFo)

This is my second tab, I did my best...

Tuning: Standard

e|-----------9----------9---------------9----------9--|
B|-----11---------11--------------11---------11-------|
G|--10----10---10----10-----10/11----11---11----11----|
D|----------------------------------------------------|
A|----------------------------------------------------|
E|----------------------------------------------------|


e|----------9---------9h11---------11p9---------------|
B|-----9---------9------------9------------9----------|
G|--10---10---10---10------10---10------10---10-------|
D|----------------------------------------------------|
A|----------------------------------------------------|
E|----------------------------------------------------|

e|-----------9----------9---------------9----------9--|
B|-----11---------11--------------11---------11-------|
G|--10----10---10----10--------11----11---11----11----|
D|----------------------------------------------------|

A|----------------------------------------------------|
E|----------------------------------------------------|

e|----------9---------9h11---------11-----------------|
B|-----9---------9------------9------------9----------|
G|--10---10---10---10------10---10------10---10-------|

D|----------------------------------------------------|
A|----------------------------------------------------|
E|----------------------------------------------------|

For it to sound more like the studio version, I think you'll just have to play it 
a half step higher. 

            
            
Suggest correction
Creating personal tab
Creating personal tab
You can edit any tab online and save it as your Personal.

You can edit, replace or remove any tab part or add personal notes – all changes will be seen only by you.

Personal tabs can be accessed anytime from any device, even offline.
Learn more »
Give kudos to tab author, rate the tab!
1 2 3 4 5
comments
print report bad tab
guest
You may want to rate the tab now too:
select rating
Wanna post a correction for this tab? Suggest correction