Oops, an error
Loading. Please wait.

Penny Chords

13 views 3 this week
no commentswrite comment
1 2 3 4 5
3 more votes to show rating
add to favorites
launch autoscroll
font size
0
reset
transpose
0
reset
display chords
guitar tuner
Autoscroll
slow
fast
+/-
esc
set tempo
stop
Help us to improve Ultimate-Guitar.com Take our survey!
×
Author
Difficulty
intermediate
About this tab version
Added the solo and mentioned the chords throughout the song. Was this info helpful? Yes No
CHORDS USED

     Bm   B   A   E   G
 
e|---2----2-----------3-|
B|---3----4---2---------|
G|---4----4---2---1-----|
D|---4----4---2---2-----|
A|---2----2-------2---2-|
E|------------------ -3-|


[Verse]
e|----------------|----------------------------------|
B-----------------|----------------------------------|
G|----------------|----------------------------------|
D|--9--7--9--7----|----------------------------------| x4
A|-------------9--|---10--9--7--5--7--9--------------|
E|----------------|----------------------------------| 

e|--------------------------------------------------|
B|--------------------------------------------------|
G|--------------------------------------------------|
D|--9--7--9--7--------------------------------------| x4
A|-------------9------------------------------------|
E|--------------------------------------------------| 


[Solo]
e|--------------------------------------|--------------------------------------|
B|--------------------------------------|--------------------------------------|
G|--------------------------------------|--------------------------------------|
D|--9--7--9--7--9---/11---12------------|--------------------------------------|
A|-----------------------------14---12--|--------------------------------------|
E|--------------------------------------|-14---12-10-12-10-12--14--12--10--7---|

e|---------------------------------|--------------------------------------------------|
B|--(14)-/15-\14-------------------|--------------------------------------------------|
G|---------------------------------|--------------------------------------------------|
D|-----------------11h12p11--9-7-9-|---------12--12---15h16--13h14--11h12--8h9--------|
A|---------------------------------|--------------------------------------------------|
E|---------------------------------|--7--7--------------------------------------------|

e|------------------------------------------------------------------------------------|
B|--14--15--14--12--14--12--10--12--8--10--8--6--5------------------------------------|
G|------------------------------------------------------------------------------------|
D|------------------------------------------------------------------------------------|
A|------------------------------------------------------------------------------------|
E|------------------------------------------------------------------------------------|


************************************

| (n)  Ghost note
| h    Hammer-on
| p    Pull-off
| /    Slide up
| \    Slide down 

************************************

Suggest correction
Give kudos to tab author, rate the tab!
1 2 3 4 5
comments
print report bad tab
guest
You may want to rate the tab now too:
select rating
Wanna post a correction for this tab? Suggest correction