Oops, an error
Loading. Please wait.

Jenny Take A Ride bass

25 views 1 this week
no commentswrite comment
1 2 3 4 5
3 more votes to show rating
add to favorites
×
Save as Personal and add changes to this tab that will be seen only by you. Learn more ›
×
You can save this tab as Personal to edit and correct it or add notes. All changes will be seen only by you. Learn more »
launch autoscroll
font size
0
reset
guitar tuner
edit
Autoscroll
slow
fast
+/-
esc
set tempo
stop
Jenny Take A Ride
The only UK single released by USA band Mitch Ryder & The Detroit Wheels
Reached number 33 in UK charts in 1966, Bass performance Jim McAllister
Tab by bass50611 Welcome to my tab, this is what I would play on stage.
It does fit the song and very close to original bassline.

Intro:
G|--------|-----------------------------------------------------------|
D|-GUITAR-|----7---9-7-6------7---9-7-6---------------------7---9-7-6-|
A|-START--|-7-7------------7-7---------------5---7-5-4---7-7----------|
E|--------|-------------------------------5-5-------------------------|

G|---------------------------------------------------------|
D|---------------------------------7---9-7-6-----7---9-7-6-|
A|----7---9-7-6-----5---7-5-4---7-7-----------7-7----------|
E|-7-7-----------5-5---------------------------------------|

Verse 1:
G|---------6--------------6--------------6--------------6-----|
D|----6-9----9-6-----6-9----9-6-----6-9----9-6-----6-9----9-6-|
A|-7-7------------7-7------------7-7------------7-7-----------|
E|------------------------------------------------------------|

G|----------------------------------------6---------------6-----|
D|---------4--------------4----------6-9----9-6------6-9----9-6-|
A|----4-7----7-4-----4-7----7-4---7-7-------------7-7-----------|
E|-5-5------------5-5-------------------------------------------|

                     (Break)
G|------------------------------------------6---------------6-----|
D|---------6---------------------------6-9----9-6------6-9----9-6-|
A|----6-9----9-6-------------------7-7--------------7-7-----------|
E|-7-7-------------5----------------------------------------------|

Verse 2:
G|---------6--------------6--------------6--------------6-----|
D|----6-9----9-6-----6-9----9-6-----6-9----9-6-----6-9----9-6-|
A|-7-7------------7-7------------7-7------------7-7-----------|
E|------------------------------------------------------------|

G|----------------------------------------6---------------6-----|
D|---------4--------------4----------6-9----9-6------6-9----9-6-|
A|----4-7----7-4-----4-7----7-4---7-7-------------7-7-----------|
E|-5-5------------5-5-------------------------------------------|

                     (Break)
G|---------------------------------------------6---------------6-----|
D|---------6------------------------------6-9----9-6------6-9----9-6-|
A|----6-9----9-6-----------------4-5--7-7--------------7-7-----------|
E|-7-7-------------5------------5------------------------------------|

Interlude 1:
G|---------6---------------------------------------------6-----|
D|----6-9----9-6----------6--------------6----------6-9----9-6-|
A|-7-7---------------6-9----9-6-----6-9----9-6---7-7-----------|
E|----------------7-7------------7-7---------------------------|

G|---------6---------------------------------------------6-----|
D|----6-9----9-6----------6--------------4----------4-7----9-6-|
A|-7-7---------------6-9----9-6-----4-7----7-4---7-7-----------|
E|----------------7-7------------5-5---------------------------|

G|---------6-----|
D|----4-7----9-6-|
A|-7-7-----------|
E|---------------|

Bridge:
G|----------------------------------------------------------6-------6-|
D|-----------------------------------------4-------4----6-9-----6-9---|
A|-7-7-7-7-7-7-7-7---7-7-7-7-7-7-7-7---4-7-----4-7-----7-------7------|
E|------------------------------------5-------5-----------------------|

G|----------------------5-------6------------------------------------|
D|------6-------4---6-9-----6-9--------------------------------------|
A|--6-9-----4-7----7-------7-------7-7-7-7-7-7-7-7---7-5-4---7-5-4---|
E|-7-------5-----------------------------------------------7-------7-\

G|-----------------------6-------6-----------------------6-------6-|
D|------4-------4----6-9-----6-9--------6-------4----6-9-----6-9---|
A|--4-7-----4-7-----7-------7--------6-9----4-7-----7-------7------|
E|-5-------5------------------------7------5-----------------------|

Interlude 2:
G|---------6-----------6-9-6---------------11------------------6-9-6-----|
D|----6-9----9-6---6-9-------9-6-----11-14-----------------6-9-------9-6-|
A|-7-7------------7---------------12-----------12-10-9-8--7--------------|
E|-----------------------------------------------------------------------|

G|----------------------6-9-6----|
D|------6-------4---6-9------9-6-|
A|--6-9-----4-7----7-------------|
E|-7-------5---------------------|

Verse 3:
G|---------6--------------6--------------6--------------------|
D|----6-9----9-6-----6-9----9-6-----6-9----9-6----------------|
A|-7-7------------7-7------------7-7------------7---5---4-----|
E|---------------------------------------------------------7--|

G|----------------------------------------6---------------6-----|
D|---------4--------------4----------6-9----9-6------6-9----9-6-|
A|----4-7----7-4-----4-7----7-4---7-7-------------7-7-----------|
E|-5-5------------5-5-------------------------------------------|

                     (Break)
G|---------------------------------------------6---------------6-----|
D|---------6------------------------------6-9----9-6------6-9----9-6-|
A|----6-9----9-6-----------------4-5--7-7--------------7-7-----------|
E|-7-7-------------5------------5------------------------------------|

Outro:
G|----------------------------------------------------------6-------6-|
D|-----------------------------------------4-------4----6-9-----6-9---|
A|-7-7-7-7-7-7-7-7---7-7-7-7-7-7-7-7---4-7-----4-7-----7-------7------|
E|------------------------------------5-------5-----------------------|

G|----------------------5-------6------------------------------------|
D|------6-------4---6-9-----6-9--------------------------------------|
A|--6-9-----4-7----7-------7-------7-7-7-7-7-7-7-7---7-5-4---7-5-4---|
E|-7-------5-----------------------------------------------7-------7-\

                                                    (Song Fades Out)
G|-----------------------6-------6-----------------------6-------6-|
D|------4-------4----6-9-----6-9--------6-------4----6-9-----6-9---|
A|--4-7-----4-7-----7-------7--------6-9----4-7-----7-------7------|
E|-5-------5------------------------7------5-----------------------|


            
            
Suggest correction
Creating personal tab
Creating personal tab
You can edit any tab online and save it as your Personal.

You can edit, replace or remove any tab part or add personal notes – all changes will be seen only by you.

Personal tabs can be accessed anytime from any device, even offline.
Learn more »
Give kudos to tab author, rate the tab!
1 2 3 4 5
comments
print report bad tab
guest
You may want to rate the tab now too:
select rating
Wanna post a correction for this tab? Suggest correction