Oops, an error
Loading. Please wait.

Coyoter Acoustic tab

394 views 1 this week
no commentswrite comment
1 2 3 4 5
1 last vote to show rating
add to favorites
×
Save as Personal and add changes to this tab that will be seen only by you. Learn more ›
×
You can save this tab as Personal to edit and correct it or add notes. All changes will be seen only by you. Learn more »
launch autoscroll
font size
0
reset
how to read this tab
guitar tuner
edit
Autoscroll
slow
fast
+/-
esc
set tempo
stop
Link to the version I tabbed youtube.com/watch?v=7rzD6hiFYYA

https://www.facebook.com/mitchellgreymusic

Capo 2nd fret


INTRO,VERSE 1 and OUTRO


Ascend along with our satellite...


e|-------------------------------|
B|---0-------2--------1----------|
G|-----6-------2--------2--------|
D|-------4-------0--------0------|
A|-------------------------------|
E|-------------------------------|
       
  
CHORUS


Howlin out I've been Coyoter...

e|---0----0----0------------------|
B|---0----0----0------------------|
G|---7----2----1------------------|
D|---7----2----2------------------|
A|---5----0----2------------------|
E|---x----x----0------------------|

   


VERSE 2 


The air out here keeps me in motion, its flowin...


e|------------------------------|
B|---0-------2-------1----------|
G|-----6-------2-------2--------|
D|-------4-------0-------0------|
A|------------------------------|
E|------------------------------|
  

Nocturnal chaos only... (palm mute)

e|---0--------0----|
B|---0--------0----|
G|---2--------1----|
D|---2--------2----|
A|---X--------2----|
E|---2--------0----|

    

CHORUS X2

OUTRO


e|------------------------------|
B|---0-------2-------1----------|
G|-----6-------2-------2--------|
D|-------4-------0-------0------|
A|------------------------------|
E|------------------------------|      

LAST CHORD

e|---0----|
B|---0----|
G|---1----|
D|---2----|
A|---2----|
E|---0----|


We're all animals in suits and dresses...






***************************************************************

NO COPYRIGHT INTENDED, ALL THE RIGHTS GOES TO MITCHELL GREY
Song on the record "On The Stellar Way"

Feel free to add corrections if there's any mistakes... Enjoy!

            
            
Suggest correction
Creating personal tab
Creating personal tab
You can edit any tab online and save it as your Personal.

You can edit, replace or remove any tab part or add personal notes – all changes will be seen only by you.

Personal tabs can be accessed anytime from any device, even offline.
Learn more »
Give kudos to tab author, rate the tab!
1 2 3 4 5
comments
print report bad tab
guest
You may want to rate the tab now too:
select rating
Wanna post a correction for this tab? Suggest correction