Oops, an error
Loading. Please wait.

Hazel tab

2,244 views 6 this week
no commentswrite comment
1 2 3 4 5
2 more votes to show rating
add to favorites
×
Save as Personal and add changes to this tab that will be seen only by you. Learn more ›
×
You can save this tab as Personal to edit and correct it or add notes. All changes will be seen only by you. Learn more »
launch autoscroll
font size
0
reset
how to read this tab
guitar tuner
edit
Autoscroll
slow
fast
+/-
esc
set tempo
stop
Author
Difficulty
Hazel - Mitchell Grey - Written by Ryan Bandong

http://www.mitchellgreymusic.com/

Intro:
E|---------X----------------|---------X-----------|--9-------9--12--12--12---9---|
B|-------9-X----10-10-10p9--|-------2-X--5s7s5----|--9h10---10--10--10--10--10---|
G|-------9-X-----9--9--9-9--|-----2---X--------6--|--9-------9---9---9---9---9---|
D|-----9---X----------------|---2-----X-----------|--9h11---11--11--11--11--11---|
A|---7-----X----------------|---------X-----------|--9-------9---9---9---9---9---|
E|-0-------X-0--------------|-2-------X-----------|------------------------------|

E|-----0~-----|
B|-----5~-----|
G|-----8~-----|
D|---6--------|
A|-7----------|
E|------------|

Chords
     E       F#m      A
E|---0--------X-------0---------|
B|---0--------2-------0---------|
G|---1--------2-------2---------|
D|---2--------2-------2---------|
A|---2--------X-------0---------|
E|---0--------2-------0---------|


Verse 1:
E                       F#m                      A           E             
Honey, you're golden, anybody could of told you that, hm hm saccharine
        E                         F#m                        A
You're pure, you're earth giving life to me like a baby tree in the ground
                  E
I thought I found, I thought I found an angel

Chorus:
             E           F#m  
You glow a hazel, hazel shade of love when I see you
     A                             E
You glow a nice hazel love, you shimmer, shimmer hazel love

Verse 2:
Honey, you're a star, anybody could of wished on you
But I had my wish come true
Come true like you were the star crashing down
Down down on earth, making life complete
Just you and I, ever since you came down from up high

Bridge:

E|--0----0----|-------0----|--0----0---------0--------|
B|--0----0----|--5----0----|--0----0---------0--------|
G|--2----4----|--6----1----|--2----4---------1--------|
D|--2----4----|--6----2----|--2----4---------2--------|
A|--0----2----|--4----2----|--0----2---------2--------|
E|--0---------|-------0----|-----------------0--------|

   365...360...look..look...dive...beyond...shine

E|--0----0----|--0----0--0--0--0--0------|
B|--0----0----|--0----0--0--0--0--0------|
G|--2----4----|--4----4--4--4--4--1------|
D|--2----4----|--4----4--4--4--4--2------|
A|--0----2----|--2----2--0--X--X--2------|
E|--0---------|-------------4--2--0------|

  Shine...now...           ...I’ m free


In 365 you make me 360, I look alive when you look at me
Took a dive in my soul, its beyond my control to shine
To shine a little hazel now, ooo I’m free

Solo:
E|-9-------------------------|--------------------------------------|
B|--------9-----------9------|------------------9--------------9-9--|
G|----11------11-9-11--------|-------9--------------------9-11------|
D|----------------------9-11-|--9-11---11--9-11---9--9-11-----------|
A|---------------------------|--------------------------------------|
E|---------------------------|--------------------------------------|

E|-12-11----11-------------|-------------------|
B|-------12----12-9----9---|---------9-12-9-7--|
G|------------------11-----|-11-9-11-----------|
D|-------------------------|-------------------|
A|-------------------------|-------------------|
E|-------------------------|-------------------|

E|-------------------------------|
B|-9-9--9-9-7-7----9-9--9-9-7-5--|
G|-9-9--9-9-9-9------------------|
D|-------------------------------|
A|-------------------------------|
E|-------------------------------|

Chorus

            
            
Suggest correction
Creating personal tab
Creating personal tab
You can edit any tab online and save it as your Personal.

You can edit, replace or remove any tab part or add personal notes – all changes will be seen only by you.

Personal tabs can be accessed anytime from any device, even offline.
Learn more »
Give kudos to tab author, rate the tab!
1 2 3 4 5
comments
print report bad tab
guest
You may want to rate the tab now too:
select rating
Wanna post a correction for this tab? Suggest correction