Oops, an error
Loading. Please wait.

Embraced By The Frost Tab

232 views 1 this week
no commentswrite comment
1 2 3 4 5
3 more votes to show rating
add to favorites
launch autoscroll
font size
0
reset
how to read this tab
guitar tuner
Autoscroll
slow
fast
+/-
esc
set tempo
stop
Help us to improve Ultimate-Guitar.com Take our survey!
×
Artist : MITHOTYN
Song : Embraced By Frost
Album : In The Sign Of The Ravens
Tabbed By : Alberto Damora (Spain)
   
   TAB EXPLANATION

   h    : Hammer On
   p    : Pull Off
   /    : Slide Up
   P.M. : Palm Muting

Intro:
     Guitar 1
e:-||---------------------------------------------------------------|
B:-||-------------5-------------------------------------------------|
G:-||-*-----4-5-------5-/7---5-4---/7---5---7-/9---9h10p9p7---------|
D:-||-*---7-------------------------------------------------10-9----|
A:-||---------------------------------------------------------------|
E:-||---------------------------------------------------------------|
||
||   Guitar2
e:-||---------------------------------------------------------------|
B:-||---------------------------------------------------------------|
G:-||-*-------------------------------------------------------------|
D:-||-*-------5----------2----------7----------9--------------------|
A:-||---------3----------0----------5----------7---8--7-------------|
E:-||----------------------------------------------------10--8-7----|
                                                   P.M..........
     
     Guitar 1                                     1st, 2nd & 3rd|| 4th time
e:-----------------------------------------------|--------------||----------|
B:-------10------8-------------------------------|------(5)-----||----------|
G:---9------9-10---10-9---10p9p7---9p7p5---7p5p4-|--5-4-------*-||--5-4-----|
D:-----------------------------------------------|-------7----*-||----------|
A:-----------------------------------------------|--------------||----------|
E:-----------------------------------------------|--------------||----------|
||                                                  P.M.            P.M.
||   Guitar 2
e:-----------------------------------------------|--------------||----------|
B:-----------------------------------------------|--------------||----------|
G:-----------------------------------------------|------------*-||----------|
D:---9--------5-----------7----------------4-----|-------2----*-||----------|
A:---7--------3-----------5----------------2-----|--3-2--0------||--3-2-----|
E:-----------------------------------------------|--------------||----------|
                                                    P.M.            P.M.
Second time Guitar 1 plays 5th fret - 2nd string

Fill 1
     Guitar 1
e:-|-------------|
B:-|-------------|
G:-|-------------|
D:-|----7--\-----|
A:-|-------------|
E:-|-------------|

Riff A + Fill 1 1st time
     Guitar 2
e:-||------------------------------------------------------------------------||
B:-||------------------------------------------------------------------------||
G:-||-*--------------------------------------------------------------------*-||
D:-||-*-2--2--4-5--5--7-9--10-9--7-5--5--4--4--5-7--5--4-2--2--9-9-9-9-9-9-*-||
A:-||---0--0--2-3--3--5-7--8--7--5-3--3--2--2--3-5--3--2-0--0--7-7-7-7-7-7---||
E:-||------------------------------------------------------------------------||

Riff B
     Guitar 1
e:-|------------------------------------------------------------------|
B:-|------------------------------------------------------------------|
G:-|---55555---44444---99999---99999---55555---44444---99999---99999--|
D:-|------------------------------------------------------------------|
A:-|------------------------------------------------------------------|
E:-|------------------------------------------------------------------|
||
||   Guitar2
e:-|------------------------------------------------------------------|
B:-|------------------------------------------------------------------|
G:-|------------------------------------------------------------------|
D:-|-------------------22222---22222-------------------22222---22222--|
A:-|---33333---22222-------------------33333---22222------------------|
E:-|------------------------------------------------------------------|

     Guitar 1
e:-|------------------------------------------------------------------|
B:-|-------------88---------------------------------------------------|
G:-|-779910101010--101077777710107799999999999910109977777777---------|
D:-|---------------------------------------------------------99999999-|
A:-|------------------------------------------------------------------|
E:-|------------------------------------------------------------------|
||
||   Guitar 2
e:-|------------------------------------------------------------------|
B:-|------------------------------------------------------------------|
G:-|------------------------------------------------------------------|
D:-|------------------------------------------------------------------|
A:-|-5555---88888888---555555-5555-777777777777-8888-5555555522222222-|
E:-|------------------------------------------------------------------|

     Guitar 1 & 2
e:-|----------------------|
B:-|----------------------|
G:-|----------------------|
D:-|-2-----2-----2-----2--|
A:-|-0-00000-00000-00000--|
E:-|----------------------|
       P.M.  ....  ....

Riff C
e:-||--------------------------------------------------------------------|
B:-||--------------------------------------------------------------------|
G:-||-*-5555555544444444999999999999999955555555444444449999999999999999-|
D:-||-*------------------------------------------------------------------|
A:-||--------------------------------------------------------------------|
E:-||--------------------------------------------------------------------|
||
||   Guitar2
e:-||--------------------------------------------------------------------|
B:-||--------------------------------------------------------------------|
G:-||-*------------------------------------------------------------------|
D:-||-*-----------------2222222222222222----------------2222222222222222-|
A:-||---3333333322222222----------------3333333322222222-----------------|
E:-||--------------------------------------------------------------------|

     Guitar 1
e:-------------------------------------------------------------------|
B:--------------88---------------------------------------------------|
G:--779910101010--101077777710107799999999999910109977777777---------|
D:----------------------------------------------------------99999999-|
A:-------------------------------------------------------------------|
E:-------------------------------------------------------------------|
||
||   Guitar 2
e:-------------------------------------------------------------------|
B:-------------------------------------------------------------------|
G:-------------------------------------------------------------------|
D:-------------------------------------------------------------------|
A:--5555---88888888---555555-5555-777777777777-8888-5555555522222222-|
E:-------------------------------------------------------------------|

     Guitar 1 & 2       x2
e:------------------------||
B:------------------------||
G:----------------------*-||
D:--2-----2-----2-----2-*-||
A:--0-00000-00000-00000---||
E:------------------------||
       P.M.  ....  ....

2nd time enter vocals (verse 1):

The moons pale light falls over the trees,
and they cast their black shadows
over the snowcovered heaths.

Riff D

Riff C (verse 2, Chorus)

Behold this land, embraced by frost.
Life and fertillity, forgotten and lost.

Riff A

Riff E (verse 3)
 
A mirrow of ice upon the lake.
I praise this land of ice and snow.
Snowstorms whining among the trees.
I praise this land where freezing winds do blow.

Riff B

Riff C (verse 4)

Fallen snowflakes in the starlight,
lies silently and still.
A lonely wolf barks in the winternight.

Riff C (verse 5, Chorus)

Behold this land, embraced by frost.
Life and fertillity, forgotten and lost.

Riff D

Riff C
A mirrow of ice upon the lake.
I praise this land of ice and snow.
Snowstorms whining among the trees.
I praise this land where freezing winds do blow.

Alberto Damora
E-Mail: mleadc00@estudiantes.unileon.es
        damoranet@mixmail.com

-\-/=\-\=/-\=/-\=/-\=/-\=/-\=/-\-/=\-\=/-\=/-\=/-\=/-\=/-\=/-\-/=\-\=/-\=/-\=/-
 This is NOT a professional transcription, it is just the way I play the song, 
 so you may find some errors in it. If you have any correction and/or comment, 
                         feel free to e-mail me.
-\-/=\-\=/-\=/-\=/-\=/-\=/-\=/-\-/=\-\=/-\=/-\=/-\=/-\=/-\=/-\-/=\-\=/-\=/-\=/-
Suggest correction
Give kudos to tab author, rate the tab!
1 2 3 4 5
comments
print report bad tab
guest
You may want to rate the tab now too:
select rating
Wanna post a correction for this tab? Suggest correction