Oops, an error
Loading. Please wait.

Hearts Of Stone Tab

406 views 1 this week
no commentswrite comment
1 2 3 4 5
please rate
add to favorites
launch autoscroll
font size
0
reset
how to read this tab
guitar tuner
Autoscroll
slow
fast
+/-
esc
set tempo
stop
Help us to improve Ultimate-Guitar.com Take our survey!
×
                                HEARTS OF STONE
                                M I T H O T Y N

>from the album gathered arround the oaken table.
transcripted by jehad haddad
e mail:jehad101@yahoo.com

tune down to D

key
p=pull off
h=hammer on
/=slide up
g1,2=guitar 1,2
x=mute

   *note: spaces mean nothing ,listen carefully to the record (in fact ,u
have to listen to each
   speaker alone to hear the notes..thats how i figured the song.also u need
two guitars to play
   the song correctly.play all chords as a fast tremlo.
   this tab isn't perfect ...so feel free to correct ,or if u have a better
version plz e-mail
    me.

   intro:
   drum intro then..
g1
e|------------------------------------------------|
B|------------------------------------------------|
G|---9-7--9p7-9-9---------------------------------|
D|----------------9-----9---9---9-----------------|
A|----------------7-9-9-7-9-7-9-7-3-5-7-7-5-7-----|
E|------------------7-7---7---7---1-3-5-5-3-5-----|
g2
e|---------------------------------------------------------------------------------------------
B|-----------------------------10-------------------10-----------------------------------------
G|-------9-7---------------7-9----9-7-9/11-9-9----9----9-7-9-11-9--7---------------------------
D|-----7-----9-9h10-7-7--7-------------------------------------------10-7-7-9-10-10-9-10p9-7-7-
A|--7------------------------------------------------------------------------------------------
E|-x5------------------------------------------------------------------------------------------
  (continuous g2)
e|---------------------------|
B|---------------------------|
G|---------------------------|
D|----77777----5-3-2---2-----|
A|-------------------5-------|
E|---------------------------|


   verse:
g1
e|---------------------------------------------------------------------------------------------|
B|---------------------------------------------------------------------------------------------|
G|---------------------------------------------------------------------------------------------|
D|---------5-----------------10-10-h12p10p9-----7-7h9h10p9p7-----------------------------------|
A|---7--2--3--2--10-9-6-7--------------------10-------------7-7-2-10-9-6-7---------------------|
E|---5--0-----0---8-7-4-5-------------------------------------5-0-8--7-4-5---------------------|
g2
e|---------------------------------------------------------------------------------------------|
B|---------------------------------------------------------------------------------------------|
G|----------------------------------------7-9-9-99-7-------------------------------------------|
D|-7-6-7-9-10-10-9-7-6-7-7-6-7-9-10-7-6-7------------10-9-10-10-1010-9-7-6-7-77-6-7-9-10-7-6-7-|
A|---------------------------------------------------------------------------------------------|
E|---------------------------------------------------------------------------------------------|

 chorus:
g1+2
e|-------------------------------------------------------------------------|
B|-------------------------------------------------------------------------|
G|-------------------------------------------------------------------------|
D|-------------------------------------------------------------------------|
A|--7-6-7-10-12-7--7-6-7-1012-7---7-6-77-6-77-9-1012-109-7-6--7-9-10-------|
E|--5-4-5--8-10-5--5-4-5-8-10-5---5-4-55-4-55-7-8-10-8-7-5-4--5-7-8--------|

   riff a (1:50)
g1
e|-------------------------------------------------------------------------|
B|-------------------------------------------------------------------------|
G|-------------------------------------------------------------------------|
D|-------------------------------------------------------------------------|
A|--7-6-7-10-12-7--7-6-7-1012-7---7-6-77-6-77-9-1012-109-7-6--7-9-10-------|
E|--5-4-5--8-10-5--5-4-5-8-10-5---5-4-55-4-55-7-8-10-8-7-5-4--5-7-8--------|
g2
e|-------------------------------------------------------------------------|
B|-------8-7-----------8-7-------------------------------------------------|
G|-9-7-9-----9---9-7-9-----9-----------------------------------------------|
D|-------------------------------------------------------------------------|
A|-----------------------------7-6-77-6-77-9-1012-109-7-6--7-9-10----------|
E|-----------------------------5-4-55-4-55-7-8-10-8-7-5-4--5-7-8-----------|


    riff b (2:02)
g1+2
e|-------------------------------------------------------------------------|
B|-------------------------------------------------------------------------|
G|-------------------------------------------------------------------------|
D|-------------------------------------333333------------------------------|
A|-77777-0233333220-------002200-55555--------023333-53222000222220000000--|
E|------------------33333--------------------------------------------------|

    riff c (2:31)
g1
e|---------------------------------------------------------------------------------------------|
B|---------------------------------------------------------------------5-6-5-3-5-3-1-3-5-3-1-0-|
G|--------------77-99-9p7-55-77-5-4---------------77-99-9p7-55-77-5-4--------------------------|
D|--7-h-9-10-10-----------------------7-h-9-10-10----------------------------------------------|
A|---------------------------------------------------------------------------------------------|
E|---------------------------------------------------------------------------------------------|
g2
e|---------------------------------------------------------------------------------------------|
B|---------------------------------------------------------------------------------------------|
G|---------------------------------------------------------------------------------------------|
D|-2222222-54-2222222-54--9-999-7-7777--5-5555--4-444444---------------------------------------|
A|-0000000-32-0000000-32--7-777-5-5555--3-3333--2-222222---------------------------------------|
E|---------------------------------------------------------------------------------------------|



  then:
  chorus
  riff a
  verse
  riff c
  end
Suggest correction
What's this?
You can suggest a correction to this tab. Community and Mods will review your correction and vote to approve or reject it.
comments
We did not receive enough feedback on this tab! Please rate:
print report bad tab
1 2 3 4 5
guest
You may want to rate the tab now too:
select rating
Please do not post tabs as comments. Select "correction" instead!