Oops, an error
Loading. Please wait.

In The Clash Of Arms Tab

384 views 1 this week
no commentswrite comment
1 2 3 4 5
please rate
add to favorites
launch autoscroll
font size
0
reset
how to read this tab
guitar tuner
Tab Pro tools
  • play this tab
  • loop segment
  • change instrument
  • show fretboard
  • metronome
×
Best way to learn
"In The Clash Of Arms"
Autoscroll
slow
fast
+/-
esc
set tempo
stop
 "In The Clash Of Arms" as performed by the Viking Gods Mithotyn on their 1999 album
 "Gathered Around The Oaken Table"

Transcribed by Lord Upir on 15 Oct. & 7 Nov. 99
Downloaded from The Black Death... http://theblackdeath.cjb.net

Normal tuning (EADGBe)

Intro (Riff 1) This is played real fast, but very cool to play
e|---------------------------------------------------
B|---------------------------------------------------
G|-7---9-10-9-7-5---5-7---7---9-10-9-7-12----12-14---
D|---7------------7---------7-------------12---------
A|---------------------------------------------------
E|---------------------------------------------------

  ---------------------------------------------------------------|
  ---------------------------------------------------------------|
  --12----14-15-14-12-10-12-10-9---14-15-14-12------------/14\---|
  -----12--------------------------------------15-14-12----------|
  ---------------------------------------------------------------|
  ---------------------------------------------------------------|

Riff 2: ?

(1:02)
e|------------------------------------------------------------------------------------------------
B|--------------------------------------/11-10-8-10~----------------------------------------------
G|-/7--9-10-9-7--9-7-------/7--9-10-9-7--------------/7--9-10-9-7--9-7----------------------------
D|-------------------10-7~---------------------------------------------10-7~-5--7-8-7-5-7--5------
A|-------------------------------------------------------------------------------------------8-5--
E|------------------------------------------------------------------------------------------------

 -----------------------------------------------------------------------------------------------------------------------
 ------------------------------------------------/14-13-11-13~----------------------------------------------------------
 -/10--12-13-12-10--12-10--------10--12-13-12-10----------------/10--12-13-12-10--12-10---------------------------------
 -------------------------13-10~--------------------------------------------------------13-10~-8-10-11-10-8--10-8-------
 -----------------------------------------------------------------------------------------------------------------11-8--
 -----------------------------------------------------------------------------------------------------------------------

 -----------------------------------------------------------------------------------------------------------------------
 ------------------------------------------------/15-14-12-14~----------------------------------------------------------
 -/11--13-14-13-11--13-11--------11--13-14-13-11----------------/11--13-14-13-11--13-11---------------------------------
 -------------------------14-11~--------------------------------------------------------14-11~-9-11-12-11-9--11-9-------
 -----------------------------------------------------------------------------------------------------------------12-9--
 -----------------------------------------------------------------------------------------------------------------------

 ---------------------------------------------------------------------------------------------------------
 --------------------------------------------/12-11-9-11~-------------------------------------------------
 -/8--10-11-10-8--10-8-------/8--10-11-10-8---------------/8--10-11-10-8--10-8----------------------------
 ----------------------11-8~---------------------------------------------------11-8~-6--8-9-8-6-8--6------
 ----------------------------------------------------------------------------------------------------9-6--
 ------------------------------------------------------------------------------------------------

 ------------------------------------------------------------------------------------------------|
 --------------------------------------/11-10-8-10~----------------------------------------------|
 -/7--9-10-9-7--9-7-------/7--9-10-9-7--------------/7--9-10-9-7--9-7----------------------------|
 -------------------10-7~---------------------------------------------10-7~-5--7-8-7-5-7--5------|
 -------------------------------------------------------------------------------------------8-5--|
 ------------------------------------------------------------------------------------------------|

Riff 2

Cool solo (2:55)
e|----------------------------------------------------------------
B|---------------------------------12b(14)r(12)b(14)r(12)---------
G|-14-12-14~-12-14~14-12-14~12-14~-----------------------12-10-12-
D|----------------------------------------------------------------
A|----------------------------------------------------------------
E|----------------------------------------------------------------

  -------------------------------------------------------------|
  -------------------------------------------------------------|
  -----------12-------------------12-14---14-14h15p14p12--???--|
  -/12-14-15----15-14-12--14---15------------------------------|
  -------------------------------------------------------------|
  -------------------------------------------------------------|

(3:05) Play intro (Riff 1)

(4:25)
e|-----------------------------------------------------------------------------------------------
B|--------------------------------------/11-10-8-10~---------------------------------------------
G|-/7--9-10-9-7--9-7-------/7--9-10-9-7--------------/7--9-10-9-7--9-7---------------------------
D|-------------------10-7~---------------------------------------------10-7~-5--7-8-7-5-7--5-----
A|-------------------------------------------------------------------------------------------8-5-
E|-----------------------------------------------------------------------------------------------

 --------------------------------------------------------------------------------------------------------
 --------------------------------------------/12-11-9-11~------------------------------------------------
 -/8--10-11-10-8--10-8-------/8--10-11-10-8---------------/8--10-11-10-8--10-8---------------------------
 ----------------------11-8~---------------------------------------------------11-8~-6--8-9-8-6-8--6-----
 ----------------------------------------------------------------------------------------------------9-6-
 ------------------------------------------------------------------------------------------------

 ------------------------------------------------------------------------------------------------|
 --------------------------------------/11-10-8-10~----------------------------------------------|
 -/7--9-10-9-7--9-7-------/7--9-10-9-7--------------/7--9-10-9-7--9-7----------------------------|
 -------------------10-7~---------------------------------------------10-7~-5--7-8-7-5-7--5------|
 -------------------------------------------------------------------------------------------8-5--|
 ------------------------------------------------------------------------------------------------|

Riff 2
comments
We did not receive enough feedback on this tab! Please rate:
print report bad tab
1 2 3 4 5
I want to post or [tab]
guest
You may want to rate the tab now too:
select rating
Please do not post tabs as comments. Select "correction" instead!