Oops, an error
Loading. Please wait.

First Love Late Spring Bass Tab

256 views 6 this week
no commentswrite comment
1 2 3 4 5
1 last vote to show rating
add to favorites
launch autoscroll
font size
0
reset
guitar tuner
Autoscroll
slow
fast
+/-
esc
set tempo
stop
Help us to improve Ultimate-Guitar.com Take our survey!
×
Author
Difficulty
novice
---------- First Love / Late Spring - Mitski ----------

Tuning: Standard


[Intro]
G|---------------|
D|---------------|
A|-3--3--3-3-3p2-| x3
E|---------------|

G|-------------|
D|-------------|
A|-3--3--3-3-3-|
E|-------------|

[Verse]
"The black hole"...
G|-------------|-------------|-------------|----------------|
D|-------------|-------------|-------------|----------------| x3
A|-3--3--3-3-3-|-7--7--7-7-7-|-8--8--8-8-8-|-10--10--10-5-5-|
E|-------------|-------------|-------------|----------------|

G|-------------|-------------|-------------|------------------|
D|-------------|-------------|-------------|------------------|
A|-3--3--3-3-3-|-7--7--7-7-7-|-8--8--8-8-8-|-10--10--10-10-10-|
E|-------------|-------------|-------------|------------------|

G|-------------|-------------|-------------|------------------|
D|-------------|-------------|-------------|------------------|
A|-3--3--3-3-3-|-7--7--7-7-7-|-8--8--8-8-8-|-10--10--10-11-11-|
E|-------------|-------------|-------------|------------------|

[Pre-chorus]
"Lately, I've been crying like a tall child"
G|------------------|-------------|-------------|-------------|
D|------------------|-------------|-------------|-------------|
A|-12--12--12-12-12-|-7--7--7-7-7-|-8--8--8-8-8-|-5--5--5-5-5-|
E|------------------|-------------|-------------|-------------|

[Chorus]
"Please, hurry, leave me"...
G|-------------|-------------|-------------|----------------|
D|-------------|-------------|-------------|----------------| x4
A|-3--3--3-3-3-|-7--7--7-7-7-|-8--8--8-8-8-|-10--10--10-5-5-|
E|-------------|-------------|-------------|----------------|

[Post-Chorus]
G|-------------|---------------|-------------|
D|-------------|---------------|-------------|
A|-3--12--7--8-|-3--3--3-3-3p2-|-3--3--3-3-3-|
E|-------------|---------------|-------------|

(Ne-t part is the guitar solo where the timing gets a bit strange.
It helps to listen closely to the song and follow the guitar.)

G|-------------|------------------|------------------|
D|-------------|------------------|------------------|
A|-3--7--8-8-8-|-10--10--12-12-12-|-11--11-11-11--10-|
E|-------------|------------------|------------------|

G|-------------|------------------|------------------|------------------|------------------|
D|-------------|------------------|------------------|------------------|------------------|
A|-3--7--8-8-8-|-10--10--12-12-12-|-11--11--11-11-11-|-10--10--10-10-10-|-10--10-10-10--10-|
E|-------------|------------------|------------------|------------------|------------------|

[Verse]
"I was so young when I behaved 25"...
G|-------------|-------------|------------------|-------------|
D|-------------|-------------|------------------|-------------|
A|-8--8--8-8-8-|-3--3--3-3-3-|-10--10--10-10-10-|-3--3--3-3-3-|
E|-------------|-------------|------------------|-------------|
 
G|-------------|-------------|------------------|------------------|
D|-------------|-------------|------------------|------------------|
A|-8--8--8-8-8-|-3--3--3-3-3-|-10--10--10-10-10-|-11--11--11-11-11-|
E|-------------|-------------|------------------|------------------|

[Pre-chorus]
"And I don't wanna go home yet"...
G|-------------|--------------|
D|-------------|--------------|
A|-12--7--8--3-|-12--10--8--3-|
E|-------------|--------------|

[Chorus]
"Please, hurry, leave me"...
G|-------------|-------------|-------------|----------------|
D|-------------|-------------|-------------|----------------| 
A|-3--3--3-3-3-|-7--7--7-7-7-|-8--8--8-8-8-|-10--10--10-5-5-| x3
E|-------------|-------------|-------------|----------------|

G|-------------|-------------|-------------|---------------|
D|-------------|-------------|-------------|---------------|
A|-3--3--3-3-3-|-7--7--7-7-7-|-8--8--8-8-8-|-10------------|
E|-------------|-------------|-------------|---------------|

[Interlude]
G|-------------|-------------|-------------|----------------|
D|-------------|-------------|-------------|----------------|
A|-4--4--4-4-4-|-8--8--8-8-8-|-9--9--9-9-9-|-11--11--11-6-6-|
E|-------------|-------------|-------------|----------------|

G|-------------|-------------|-------------|------------------|
D|-------------|-------------|-------------|------------------| 
A|-4--4--4-4-4-|-8--8--8-8-8-|-9--9--9-9-9-|-11--11--11-11-11-|
E|-------------|-------------|-------------|------------------|

[Chorus]
"One word from you"...
G|-------------|-------------|-------------|----------------|
D|-------------|-------------|-------------|----------------|
A|-3-----------|-7--7--7-7-7-|-8--8--8-8-8-|-10--10--10-5-5-|
E|-------------|-------------|-------------|----------------|

G|-------------|-------------|-------------|----------------|----------------|
D|-------------|-------------|-------------|----------------|----------------|
A|-3--3--3-3-3-|-7--7--7-7-7-|-8--8--8-8-8-|-10--10--10-5-5-|-10--10--10-5-5-|
E|-------------|-------------|-------------|----------------|----------------|

[Outro]
G|-------------|---------------|---------------|-------------|-------------|-------------|
D|-------------|---------------|---------------|-------------|-------------|-------------|
A|-3--12--7--8-|-3--3--3-3-3p2-|-3--3--3-3-3p2-|-3--3--3-3-3-|-7--7--7-7-7-|-8-----------|
E|-------------|---------------|---------------|-------------|-------------|-------------|

************************************
| p   Pull-off
************************************
Suggest correction
Give kudos to tab author, rate the tab!
1 2 3 4 5
comments
print report bad tab
guest
You may want to rate the tab now too:
select rating
Wanna post a correction for this tab? Suggest correction