Oops, an error
Loading. Please wait.

Francis Forever bass

by Mitski
11,774 views 162 this week
7 commentsread comments
1 2 3 4 5
x 12
add to favorites
×
Save as Personal and add changes to this tab that will be seen only by you. Learn more ›
×
You can save this tab as Personal to edit and correct it or add notes. All changes will be seen only by you. Learn more »
launch autoscroll
font size
0
reset
guitar tuner
edit
Autoscroll
slow
fast
+/-
esc
set tempo
stop
---------- Francis Forever - Mitski ----------

Tuning: Drop D 

[Intro]
G|---------------------------------|---------|
D|---------------------------------|---------|
A|---------------------------------|---------|
D|-0-0-0-0-0-0-0-0-0-0-0-0-0-0-0-0-|-4-4-4-4-|


[Verse]
“I don’t know what do without you”...
G|---------------------------------|
D|---------------------------------| x3
A|---------2-2-2-2-0-0-0-0---------|
D|-0-0-0-0-----------------4-4-4-4-|


[Pre-Chorus] 
“But I’m writing this at 3am”
G|------------------------|
D|------------------------|
A|------------------------|
D|5-5-5-5-7-7-7-7-0-0-0-0-|


[Chorus]
"I don't need the world to see"...
G|---------------------------------|---------------------------------|
D|---------------------------------|---------------------------------|
A|---------------------------------|---------------------------------|
D|-5-5-5-5-7-7-7-7-0-0-4-4-5-5-5-5-|-5-5-5-5-7-7-7-7-0-0-0-0-4-4-4-4-|

G|--------------------------------|-----------------|
D|--------------------------------|-----------------|
A|--------------------------------|-----------------|
D|5-5-5-5-7-7-7-7-0-0-4-4-5-5-5-5-|-5-5-5-5-7-7-7-7-|


[Post-Chorus]
G|---------------------------------|---------------------------------|
D|---------------------------------|---------------------------------|
A|---------------------------------|---------------------------------|
D|-4-4-0-0-5-5-0-0-5-5-5-5-0-0-0-0-|-9-9-0-0-9-9-0-0-7-7-7-7-0-0-4-4-|

G|---------------------------------|-------------------------|---------|
D|---------------------------------|-------------------------|---------|
A|---------------------------------|-------------------------|---------|
D|-4-4-0-0-4-4-0-0-5-5-5-5-0-0-0-0-|-9-9-0-0-9-9-0-0-7-7-7-7-|-7-7-7-7-|


[Verse]
“On sunny days I go out walking”...
G|----------------------------- -----|
D|-----------------------------------| x3
A|---------2-2-2-2-0-0-0-0-----------|
D|-0-0-0-0------------------4-4-4-4--|


[Pre-Chorus]
"I miss you more than anything"
G|------------------------|
D|------------------------|
A|------------------------|
D|5-5-5-5-7-7-7-7-0-0-0-0-|


[Chorus]
"I don't need the world to see"...
G|---------------------------------|---------------------------------|
D|---------------------------------|---------------------------------|
A|---------------------------------|---------------------------------|
D|-5-5-5-5-7-7-7-7-0-0-4-4-5-5-5-5-|-5-5-5-5-7-7-7-7-0-0-0-0-4-4-4-4-|

G|--------------------------------|---------------------------------|
D|--------------------------------|---------------------------------|
A|--------------------------------|---------------------------------|
D|5-5-5-5-7-7-7-7-0-0-4-4-5-5-5-5-|-5-5-5-5-7-7-7-7-2-2-2-2-2-2-2-2-|


[Bridge]
"And autumn comes when you're not yet done"...
G|---------------------------------|---------------------------------|
D|---------------------------------|---------------------------------|
A|---------------------------------|---------------------------------|
D|-5-5-5---7-7-7---0-0-4-4-5-5-5-5-|-5-5-5-5-7-7-7-7-0-0-0-0-4-4-4-4-|

G|--------------------------------|-----------------|
D|--------------------------------|-----------------|
A|--------------------------------|-----------------|
D|5-5-5-5-7-7-7-7-0-0-4-4-5-5-5-5-|-5-5-5-5-7-7-7-7-|


[Outro]
G|---------------------------------|---------------------------------|
D|---------------------------------|---------------------------------|
A|---------------------------------|---------------------------------|
D|-4-4-0-0-5-5-0-0-5-5-5-5-0-0-0-0-|-9-9-0-0-9-9-0-0-7-7-7-7-0-0-4-4-|

G|---------------------------------|-------------------------------|
D|---------------------------------|-------------------------------|
A|---------------------------------|-------------------------------|
D|-4-4-0-0-4-4-0-0-5-5-5-5-0-0-0-0-|-9-9-0-0-9-9-0-0-7-7-7-7-7-7-7-|

            
            
Suggest correction
Creating personal tab
Creating personal tab
You can edit any tab online and save it as your Personal.

You can edit, replace or remove any tab part or add personal notes – all changes will be seen only by you.

Personal tabs can be accessed anytime from any device, even offline.
Learn more »
comments
print report bad tab
7 comments total. Showing first comments.
-2 reply
superduperkylie 12 Feb 16, 2017 09:19 PM

this is just so wrong its kind of sad

0 reply
superduperkylie 12 Feb 18, 2017 06:02 PM

oh my god im so sorry i was just extremely frustrated

0 reply
una_johansen 10 Mar 28, 2017 09:55 AM

When I listen to the song no Spotify, the verses sounds like Thea start with 4, or what di you think?

guest
You may want to rate the tab now too:
select rating
Wanna post a correction for this tab? Suggest correction