Oops, an error
Loading. Please wait.

Francis Forever tab

by Mitski
1,324 views 150 this week
1 commentread comment
1 2 3 4 5
x 5
add to favorites
×
Save as Personal and add changes to this tab that will be seen only by you. Learn more ›
×
You can save this tab as Personal to edit and correct it or add notes. All changes will be seen only by you. Learn more »
launch autoscroll
font size
0
reset
how to read this tab
guitar tuner
edit
Autoscroll
slow
fast
+/-
esc
set tempo
stop
[Intro]
e|---------------------------------------------------------------------------|
B|---------------------------------------------------------------------------|
G|---------------------------------------------------------------------------|
D|---------------------------------------------------------------------------|
A|---------------------------------------------------------------------------|
D|--0-0-0-0-0-0-0-0-0-0-0-0--------------------------------------------------| (4x)

[Verse]
e|---------------------------------------------------------------------------|
B|---------------------------------------------------------------------------|
G|---------------------------------------------------------------------------|
D|---------------------------------------------------------------------------|
A|------------------2-2-2-2-0-0-0-0------------------------------------------|
D|--4-4-4-4-0-0-0-0----------------------------------------------------------| (3x)

I don't know what to do without you 
I don't know where to put my hands 
I've been trying to lay my head down 

e|---------------------------------------------------------------------------|
B|---------------------------------------------------------------------------|
G|---------------------------------------------------------------------------|
D|---------------------------------------------------------------------------|
A|---------------------------------------------------------------------------|
D|--0-0-0-0-4-4-5-5-7-7-7-7-0-0-0-0------------------------------------------|

But I'm writing this at 3am

[Chorus]
e|---------------------------------------------------------------------------|
B|---------------------------------------------------------------------------|
G|---------------------------------------------------------------------------|
D|---------------------------------------------------------------------------|
A|---------------------------------------------------------------------------|
D|--5-5-5-5-7-7-7-7-0-0-4-4-5-5-5-5-5-5-5-5-7-7-7-7-0-0-0-0-4-4-4-4----------|

I don't need the world to see 
That I've been the best I can be, but 

e|---------------------------------------------------------------------------|
B|---------------------------------------------------------------------------|
G|---------------------------------------------------------------------------|
D|---------------------------------------------------------------------------|
A|---------------------------------------------------------------------------|
D|--5-5-5-5-7-7-7-7-0-0-4-4-5-5-5-5-5-5-5-5-7-7-7-7-4-4-0-0-4-4-0-0----------|

I don't think I could stand to be 
Where you don't see me

e|---------------------------------------------------------------------------|
B|---------------------------------------------------------------------------|
G|---------------------------------------------------------------------------|
D|---------------------------------------------------------------------------|
A|---------------------------------------------------------------------------|
D|-5-5-5-5-7-7-7-7-9-9-7-7-9-9-7-7-7-7-7-7-0-0-4-4-4-4-0-0-4-4-0-0-5-5-5-5---|

e|---------------------------------------------------------------------------|
B|---------------------------------------------------------------------------|
G|---------------------------------------------------------------------------|
D|---------------------------------------------------------------------------|
A|---------------------------------------------------------------------------|
D|-0-0-0-0-9-9-7-7-9-9-7-7-7-7-7-7-7-7-7-7-7-7-7-7---------------------------|

[Verse]
e|---------------------------------------------------------------------------|
B|---------------------------------------------------------------------------|
G|---------------------------------------------------------------------------|
D|---------------------------------------------------------------------------|
A|------------------2-2-2-2-0-0-0-0------------------------------------------|
D|--4-4-4-4-0-0-0-0----------------------------------------------------------| (3x)

On sunny days I go out walking 
I end up on a tree-lined street 
I look up at the gaps of sunlight 

e|---------------------------------------------------------------------------|
B|---------------------------------------------------------------------------|
G|---------------------------------------------------------------------------|
D|---------------------------------------------------------------------------|
A|---------------------------------------------------------------------------|
D|--0-0-0-0-4-4-5-5-7-7-7-7-0-0-0-0------------------------------------------|

I miss you more than anything

[Chorus]
e|---------------------------------------------------------------------------|
B|---------------------------------------------------------------------------|
G|---------------------------------------------------------------------------|
D|---------------------------------------------------------------------------|
A|---------------------------------------------------------------------------|
D|--5-5-5-5-7-7-7-7-0-0-4-4-5-5-5-5-5-5-5-5-7-7-7-7-0-0-0-0-4-4-4-4----------|

I don't need the world to see 
That I've been the best I can be, but 

e|---------------------------------------------------------------------------|
B|---------------------------------------------------------------------------|
G|---------------------------------------------------------------------------|
D|---------------------------------------------------------------------------|
A|---------------------------------------------------------------------------|
D|--5-5-5-5-7-7-7-7-0-0-4-4-5-5-5-5-5-5-5-5-7-7-7-7-4-4-0-0-4-4-0-0----------|

I don't think I could stand to be 
Where you don't see me

e|---------------------------------------------------------------------------|
B|---------------------------------------------------------------------------|
G|---------------------------------------------------------------------------|
D|---------------------------------------------------------------------------|
A|---------------------------------------------------------------------------|
D|--5-5-5-5-7-7-7-7-0-0-4-4-5-5-5-5-5-5-5-5-7-7-7-7-0-0-0-0-4-4-4-4----------|

And autumn comes when you're not yet done 
With the summer passing by, but 

e|---------------------------------------------------------------------------|
B|---------------------------------------------------------------------------|
G|---------------------------------------------------------------------------|
D|---------------------------------------------------------------------------|
A|---------------------------------------------------------------------------|
D|--5-5-5-5-7-7-7-7-0-0-4-4-5-5-5-5-5-5-5-5-7-7-7-7-4-4-0-0-4-4-0-0----------|

I don't think I could stand to be 
Where you don't see me

[Outro]
e|---------------------------------------------------------------------------|
B|---------------------------------------------------------------------------|
G|---------------------------------------------------------------------------|
D|---------------------------------------------------------------------------|
A|---------------------------------------------------------------------------|
D|-5-5-5-5-7-7-7-7-9-9-7-7-9-9-7-7-7-7-7-7-0-0-4-4-4-4-0-0-4-4-0-0-5-5-5-5---|

e|---------------------------------------------------------------------------|
B|---------------------------------------------------------------------------|
G|---------------------------------------------------------------------------|
D|---------------------------------------------------------------------------|
A|---------------------------------------------------------------------------|
D|-0-0-0-0-9-9-7-7-9-9-7-7-7-7-7-7-7-7-7-7-0-0-0-0---------------------------|

            
            
Suggest correction
Creating personal tab
Creating personal tab
You can edit any tab online and save it as your Personal.

You can edit, replace or remove any tab part or add personal notes – all changes will be seen only by you.

Personal tabs can be accessed anytime from any device, even offline.
Learn more »
comments
print report bad tab
1 comment total.
0 reply
willieguardado 10 Sep 12, 2017 01:04 AM

awesome tab, does anyone have any idea on where to get the solo bits with those higher notes???

guest
You may want to rate the tab now too:
select rating
Wanna post a correction for this tab? Suggest correction