Oops, an error
Loading. Please wait.

I Bet On Losing Dogs ukulele

by Mitski
718 views 27 this week
no commentswrite comment
1 2 3 4 5
3 more votes to show rating
add to favorites
×
Save as Personal and add changes to this tab that will be seen only by you. Learn more ›
×
You can save this tab as Personal to edit and correct it or add notes. All changes will be seen only by you. Learn more »
launch autoscroll
font size
0
reset
transpose
0
reset
simplify chords
display chords
guitar tuner
edit
Autoscroll
slow
fast
+/-
esc
set tempo
stop
Author
Difficulty
Strumming
There is no strumming pattern for this song yet. and get +5 IQ
Tuning: GCEA (Soprano ukulele)
80 bpm, 2 beats per chord

[Chords]
E/G# 987x
E    444x
E7/B 9-11-10-x
A    999x
Bm   x-11-10-9
F#m  x654
A/E  x454
D    x220
C    0003
F    2010
Bb   3211
Cm   0333
Gm   0231
Gm9  0230

[Symbols]
^ = up-strum
V = down-strum
() = hold fret
h = hammer-on
p = pull-off

[Intro]
E/G#
(enter two beats after drums)

E/G# A        Bm  F#m
My   baby, my baby
A         E     Bm     D       
You're my baby, say it to me
A A        Bm  F#m
  Baby, my baby
A         E         Bm       D
Tell your baby that I'm your baby

[Chorus]
A/E A      Bm     F#m
I   bet on losing dogs
A              E            Bm         F#m
I know they're losing and I pay for my place by the
A                  E                Bm                F#m
Ring where I'll be looking in their eyes when they're down
A    E        Bm       F#m
I'll be there on their side
A   E      Bm
I'm losing by their

[Solo]
    D            A
    side         V                              
A|-------7----|--7-p4----|--(4)---7p5p4--|
E|------------|--5-(5)---|--(5)----------|
C|------------|--4-(4)---|--(4)----------|
G|------------|--6-(6)---|--(6)----------|

    Bm             E                    Bm             E              
    V       V                           V       V                     ^
A|--4-h5-------|---------|--------4--|--4-h5-------|---------|-----------|
E|--2-(2)---4--|--(4)----|--(4)------|--2-(2)---4--|--(4)----|--(4)---7--|
C|--2-(2)---4--|--(4)----|--(4)------|--2-(2)---4--|--(4)----|--(4)---4--|
G|--4-(4)---4--|--(4)----|--(4)------|--4-(4)---4--|--(4)----|--(4)---7--|

     E7/B      A
                  V     
A|---------|------4---|--(4)----|
E|--(7)----|--(7)-5---|--(5)----|
C|--(4)----|--(4)-4---|--(4)----|
G|--(7)----|--(7)-6---|--(6)----|

    E/G#          F#m      A/E
       ^   V               V                 
A|---------4--|--(4)----|------7p5p4--|
E|-----7---5--|--(5)----|--5----------|
C|--8--8---6--|--(6)----|--4----------|
G|-----9------|---------|--6----------|

    Bm              E                      Bm              E
    V       V                              V       V
A|--4-h5----11--|--(11)----|--(11)---4--|--4-h5----11--|--(11)----|--(11)----|
E|--2-(2)---12--|--(12)----|--(12)------|--2-(2)---12--|--(12)----|--(12)----|
C|--2-(2)---11--|--(11)----|--(11)------|--2-(2)---11--|--(11)----|--(11)----|
G|--4-(4)-------|----------|------------|--4-(4)-------|----------|----------|

[Chorus]
C         F   F   F F
Would you let me, baby

F    Bb Cm     Gm            
Lose on losing dogs
Bb             F            Cm         Gm     
I know they're losing and I pay for my place by the
Bb                 F                Cm                Gm    
Ring where I'll be looking in their eyes when they're down
Bb F       Cm   Gm  
I  want to feel it

Bb F      Cm     Gm      
I  bet on losing dogs
Bb       F                 Cm      Gm
I always want you when I'm finally fine, how you'd
Bb         F             Cm          Gm
Be over me looking in my eyes when I come
Bb  F      Cm       Gm
Someone to watch me die

[Outro]
Bb  F      Cm       Gm
Someone to watch me die
Bb F      Cm     Gm
I  bet on losing dogs

    Bb      F              Cm              Gm9
    V       V       V               V
A|--5----|--3-p1----6--|--(6)-p5----0--|--(0)----||
E|--1----|--1-(1)---3--|--(3)-(3)---3--|--(3)----||
C|--2----|--0-(0)---3--|--(3)-(3)---2--|--(2)----||
G|--3----|--2-(2)------|------------0--|--(0)----||

            
            
Suggest correction
Creating personal tab
Creating personal tab
You can edit any tab online and save it as your Personal.

You can edit, replace or remove any tab part or add personal notes – all changes will be seen only by you.

Personal tabs can be accessed anytime from any device, even offline.
Learn more »
Give kudos to tab author, rate the tab!
1 2 3 4 5
comments
print report bad tab
guest
You may want to rate the tab now too:
select rating
Wanna post a correction for this tab? Suggest correction