Oops, an error
Loading. Please wait.

I Will Bass Tab

301 views 9 this week
no commentswrite comment
1 2 3 4 5
3 more votes to show rating
add to favorites
launch autoscroll
font size
0
reset
guitar tuner
Autoscroll
slow
fast
+/-
esc
set tempo
stop
Help us to improve Ultimate-Guitar.com Take our survey!
×
Author
Difficulty
Tuning
novice
D A D G B E
---------- I Will - Mitski ----------

Tuning: Drop D 


[Intro]
G|---------------------------------|-----------------------------------------|
D|---------------------------------|-----------------------------------------|
A|---------------------------------|-----------------------------------------|
D|-5-5-5-5-5-5-5-5-9-9-9-9-9-9-9-9-|-7-7-7-7-7-7-7-7-12-12-12-12-12-12-12-12-|

G|---------------------------------|---------------------------------|
D|---------------------------------|---------------------------------|
A|---------------------------------|---------------------------------|
D|-5-5-5-5-5-5-5-5-9-9-9-9-9-9-9-9-|-7-7-7-7-7-7-7-7-0-0-0-0-0-0-0-0-|


[Verse]
“I will take good care of you”...
G|---------------------------------|-----------------------------------------|
D|---------------------------------|-----------------------------------------|
A|---------------------------------|-----------------------------------------| x2
D|-5-5-5-5-5-5-5-5-9-9-9-9-9-9-9-9-|-7-7-7-7-7-7-7-7-12-12-12-12-12-12-12-12-|

G|---------------------------------|----------------------------------------|
D|---------------------------------|----------------------------------------|
A|---------------------------------|----------------------------------------|
D|-5-5-5-5-5-5-5-5-9-9-9-9-9-9-9-9-|-7-7-7-7-7-7-7-7-12-12-12-12-11-11-11-11|

G|---------------------------------|---------------------------------|
D|---------------------------------|---------------------------------|
A|---------------------------------|---------------------------------|
D|-9-9-9-9-9-9-9-9-5-5-5-5-5-5-5-5-|-7-7-7-7-7-7-7-7-0-0-0-0-0-0-0-0-|


[Pre-Chorus] 
G|---------------------------------|-------------------------------------|
D|---------------------------------|-------------------------------------|
A|---------------------------------|-------------------------------------|
D|-5-5-5-5-5-5-5-5-9-9-9-9-9-9-9-9-|-7-7-7-7-7-7-7-7-12-12-11-11-9-9-9-9-|

G|---------------------------------|---------------------------------|
D|---------------------------------|---------------------------------|
A|---------------------------------|---------------------------------|
D|-5-5-5-5-5-5-5-5-9-9-9-9-9-9-9-9-|-7-7-7-7-7-7-7-7-0-0-0-0-0-0-0-0-|


[Chorus]
"So stay with me"...
G|---------------------------------|---------------------------------|
D|---------------------------------|---------------------------------|
A|---------------------------------|---------------------------------|
D|-0-0-0-0-0-0-0-0-5-5-5-5-5-5-5-5-|-9-9-9-9-9-9-9-9-7-7-7-7-7-7-7-7-|

G|---------------------------------|---------------------------------|
D|---------------------------------|---------------------------------|
A|---------------------------------|---------------------------------|
D|-0-0-0-0-0-0-0-0-5-5-5-5-5-5-5-5-|-9-9-9-9-9-9-9-9-7-7-7-7-7-7-7-7-|


[Verse]
“And all the quiet nights you bear”...
G|---------------------------------|-----------------------------------------|
D|---------------------------------|-----------------------------------------|
A|---------------------------------|-----------------------------------------|
D|-5-5-5-5-5-5-5-5-9-9-9-9-9-9-9-9-|-7-7-7-7-7-7-7-7-12-12-12-12-11-11-11-11-|

G|---------------------------------|-----------------------------------------|
D|---------------------------------|-----------------------------------------|
A|---------------------------------|-----------------------------------------|
D|-9-9-9-9-9-9-9-9-5-5-5-5-5-5-5-5-|-7-7-7-7-7-7-7-7-12-12-12-12-12-12-12-12-|

[Bridge]
"'Cause all I've ever wanted is here"...
G|-----------------|
D|-----------------|
A|-----------------| x4
D|-7-7-7-7-7-7-7-7-|

G|-----------------|
D|-----------------|
A|-----------------| x6
D|-5-5-5-5-5-5-5-5-|

G|---------------------------------|-----------------|
D|---------------------------------|-----------------|
A|---------------------------------|-----------------|
D|-2-2-2-2-2-2-2-2-2-2-2-2-2-2-2-2-|-0-0-0-0-0-0-0-0-|

[Pre-chorus]
"And we're not out of the tunnel"...
G|-----------------------------------------|---------------------------------|---------|
D|-----------------------------------------|---------------------------------|---------|
A|-----------------------------------------|---------------------------------|---------|
D|-12-12-12-12-11-11-11-11-9-9-9-9-9-9-9-9-|-5-5-5-5-5-5-5-5-7-7-7-7-7-7-7-7-|-2-2-2-2-|


[Chorus]
"Stay with me"...
G|---------------------------------|---------------------------------|
D|---------------------------------|---------------------------------|
A|---------------------------------|---------------------------------|
D|-2-2-2-2-0-0-0-0-0-0-0-0-5-5-5-5-|-5-5-5-5-9-9-9-9-9-9-9-9-7-7-7-7-|

G|--------------------------------|---------------------------------|---------|
D|--------------------------------|---------------------------------|---------|
A|--------------------------------|---------------------------------|---------|
D|7-7-7-7-0-0-0-0-0-0-0-0-5-5-5-5-|-5-5-5-5-9-9-9-9-9-9-9-9-7-7-7-7-|-7-7-7-7-|




[Outro]
"And while you sleep"...
G|---------------------------------|---------------------------------|
D|---------------------------------|---------------------------------|
A|---------------------------------|---------------------------------| x3
D|-0-0-0-0-0-0-0-0-5-5-5-5-5-5-5-5-|-9-9-9-9-9-9-9-9-7-7-7-7-7-7-7-7-|

G|---------------------------------|-----------------------|
D|---------------------------------|-----------------------|
A|---------------------------------|-----------------------|
D|-5-5-5-5-5-5-5-5-9-9-9-9-9-9-9-9-|-7-7-7-7-7-7-7-7-0-0-0-|
Suggest correction
Give kudos to tab author, rate the tab!
1 2 3 4 5
comments
print report bad tab
guest
You may want to rate the tab now too:
select rating
Wanna post a correction for this tab? Suggest correction