Oops, an error
Loading. Please wait.

Townie tab

by Mitski
415 views 33 this week
no commentswrite comment
1 2 3 4 5
2 more votes to show rating
add to favorites
×
Save as Personal and add changes to this tab that will be seen only by you. Learn more ›
×
You can save this tab as Personal to edit and correct it or add notes. All changes will be seen only by you. Learn more »
launch autoscroll
font size
0
reset
how to read this tab
guitar tuner
edit
Autoscroll
slow
fast
+/-
esc
set tempo
stop
[Intro]
e|---x-----|
B|---x-----|
G|---x-----|
D|---10----|
A|---10----|
D|---10----|  (4x)

[Verse]
e|---x-----x----x---x----|
B|---x-----x----x---x----|
G|---x-----x----x---x----|
D|---10----3----5---10---|
A|---10----3----5---10---|
D|---10----3----5---10---| (2x)

There's a party and we're all going 
And we're all growing up 
Somebody's driving and he will be drinking 
And no one's going back 

e|---x-----x----x---x---|
B|---x-----x----x---x---|
G|---x-----x----x---x---|
D|---10----3----5---6---|
A|---10----3----5---6---|
D|---10----3----5---6---| 

'Cause we've tried hungry and we've tried full and 
Nothing seems enough 

[Pre - Chorus]
e|---x-----x----x---x---|
B|---x-----x----x---x---|
G|---x-----x----x---x---|
D|---3-----5----6---8---|
A|---3-----5----6---8---|
D|---3-----5----6---8---| 

So tonight, tonight
The boys are gonna go for 
More more more

[Chorus]
e|---x-----x----x----x---|
B|---x-----x----x----x---|
G|---x-----x----x----x---|
D|---3-----5----10---7---|
A|---3-----5----10---7---|
D|---3-----5----10---7---| 

And I want a love that falls as fast 
As a body from the balcony, and 

e|---x-----x----x-------|
B|---x-----x----x-------|
G|---x-----x----x-------|
D|---3-----5----10------|
A|---3-----5----10------|
D|---3-----5----10------| 

I want a kiss like my heart is hitting the ground 

e|---x-----x----x---0---|
B|---x-----x----x---0---|
G|---x-----x----x---0---|
D|---3-----5----7---0---|
A|---3-----5----7---0---|
D|---3-----5----7---0---| 

I'm holding my breath with a baseball bat 
Though I don't know what I'm waiting for

e|---x-----x----x-------|
B|---x-----x----x-------|
G|---x-----x----x-------|
D|---3-----5----10------|
A|---3-----5----10------|
D|---3-----5----10------| 

I am not gonna be what my daddy wants me to be

[Verse]
e|---x-----x----x---x----|
B|---x-----x----x---x----|
G|---x-----x----x---x----|
D|---10----3----5---10---|
A|---10----3----5---10---|
D|---10----3----5---10---| (2x)

Smell that, it's wet grass, and smoke in my hair 
I think I've had enough 
But he wants a finale and I came prepared 
And we're not going back 

e|---x-----x----x---x---|
B|---x-----x----x---x---|
G|---x-----x----x---x---|
D|---10----3----5---6---|
A|---10----3----5---6---|
D|---10----3----5---6---| 

And I've tried sharing and I've tried caring 
And I've tried putting out 

[Pre - Chorus]
e|---x-----x----x---x---|
B|---x-----x----x---x---|
G|---x-----x----x---x---|
D|---3-----5----6---8---|
A|---3-----5----6---8---|
D|---3-----5----6---8---| (2x)

But the boys boys boys keep coming on for 
More more more 
And change change change is gonna come, but 
When when when?

[Chorus]
e|---x-----x----x----x---|
B|---x-----x----x----x---|
G|---x-----x----x----x---|
D|---3-----5----10---7---|
A|---3-----5----10---7---|
D|---3-----5----10---7---| 

And I want a love that falls as fast 
As a body from the balcony, and 

e|---x-----x----x-------|
B|---x-----x----x-------|
G|---x-----x----x-------|
D|---3-----5----10------|
A|---3-----5----10------|
D|---3-----5----10------| 

I want a kiss like my heart is hitting the ground 

e|---x-----x----x---0---|
B|---x-----x----x---0---|
G|---x-----x----x---0---|
D|---3-----5----7---0---|
A|---3-----5----7---0---|
D|---3-----5----7---0---| 

I'm holding my breath with a baseball bat 
Though I don't know what I'm waiting for

e|---x-----x----x-------|
B|---x-----x----x-------|
G|---x-----x----x-------|
D|---3-----5----10------|
A|---3-----5----10------|
D|---3-----5----10------| 

I am not gonna be what my daddy wants me to be

[Outro]
e|---x-----x----x-------|
B|---x-----x----x-------|
G|---x-----x----x-------|
D|---3-----5----10------|
A|---3-----5----10------|
D|---3-----5----10------| 

I am not gonna be what my daddy wants me to be
I am not gonna be what my daddy wants me to be
I wanna gonna be what my body wants me to be
Suggest correction
Creating personal tab
Creating personal tab
You can edit any tab online and save it as your Personal.

You can edit, replace or remove any tab part or add personal notes – all changes will be seen only by you.

Personal tabs can be accessed anytime from any device, even offline.
Learn more »
Give kudos to tab author, rate the tab!
1 2 3 4 5
comments
print report bad tab
guest
You may want to rate the tab now too:
select rating
Wanna post a correction for this tab? Suggest correction