Oops, an error
Loading. Please wait.

Secret Side tab

70 views 3 this week
no commentswrite comment
1 2 3 4 5
3 more votes to show rating
add to favorites
×
Save as Personal and add changes to this tab that will be seen only by you. Learn more ›
×
You can save this tab as Personal to edit and correct it or add notes. All changes will be seen only by you. Learn more »
launch autoscroll
font size
0
reset
how to read this tab
guitar tuner
edit
Autoscroll
slow
fast
+/-
esc
set tempo
stop
--------------------------------------------------------------------------------------------
This song is by the Irish rock band Mixtwitch.
It is the second song on the album "Funny Cause It's True". They are surely
the best band in the world. Check out www.mixtwitch.com .
--------------------------------------------------------------------------------------------
Mixtwitch : Secret Side


Intro:  D5   G5  x4

        D5   G5  x3    With distortion

 then   D5    Bb5   G5  A

Verse                        Bb5 (With Distortion)
    ----------------------|------------------------------------|
   ---7-x-7-x-7-x-7-x-7-x-|------------------------------------|
   ---7-x-7-x-7-x-7-x-7-x-|------------------------------------|
   ---7-x-7-x-7-x-7-x-7-x-|-8-8--------------------------------|
   ---5-x-5-x-5-x-5-x-5-x-|-8-8--------------------------------|
   -----------------------|-6-6--------------------------------|x2
    Was it somthing that I said?
    Are you dizzy in the head?
    This can wake you up your dead,

   -----------------------|------------------------------------|
   ---7-x-7-x-7-x-7-x-7-x-|------------------------------------|
   ---7-x-7-x-7-x-7-x-7-x-|------------------------------------|
   ---7-x-7-x-7-x-7-x-7-x-|-8-8---4-4--6-6---------------------|
   ---5-x-5-x-5-x-5-x-5-x-|-8-8---4-4--6-6---------------------|
   -----------------------|-6-6---2-2--4-4---------------------|
      And theres nothing I can't do.

 Verse 2: (Same Chords)
    Lay the blame on someone else,
    While you just sit there on the fence,
    Do theese lines make any sense?
      Or have they changed to somthing new?

  Chorus:
  D5        Bb5              G5                        A5
  I cant believe we said goodbye so many times this life

  All those years ago I tried, but it all ended that night

  Since that night I feel so sick, of this never ending trial.

  I,m not waiting any longer

 Verse:
   Street fights bore me every day
   Have theese folks nothing to say?
   we'll just wait untill the rain,
     Coz' they're running out of luck.

   My Friends left me here at home
   Help me here all alone,
   Outside world of telephone,
     Someone left it off the hook.

  Chorus
  D5        Bb5              G5                        A5
  I cant believe I've let it fly so many times this year

  I'm just sick and tired of waiting, for the secrets to our beer,

  every night I drown my sorrow, but do I feed my fear?.

  This just can't go on for much longer.


     Bass Solo while guitar plays
        D5      Bb5        G5        A5


  Chorus
  D5        Bb5              G5                       A5
  I cant believe the seasons this no reason for this hate,

  just because I've lost my mind, doesn't mean I've lost my faith,

  If I'd known she was going to say it, it would have made a break.

  I wish it had gone on for much longer. It's all a big mistake!

            
            
Suggest correction
Creating personal tab
Creating personal tab
You can edit any tab online and save it as your Personal.

You can edit, replace or remove any tab part or add personal notes – all changes will be seen only by you.

Personal tabs can be accessed anytime from any device, even offline.
Learn more »
Give kudos to tab author, rate the tab!
1 2 3 4 5
comments
print report bad tab
guest
Wanna post a correction for this tab? Suggest correction